Mixtapes

Russian House Dj

Mixtapes

tabs Intermediate intermediate

by  UBIRBOMFIM

save to print version add songbook text version e-mail correct tuner
chordsukulelecavacokeyboardtabbassdrumsharmonicaflute Guitar Pro
close

there isn't a video lesson for this song

chords

Russian House Dj

	  		

Intro Lead 
E ---------------------| 
B --5-4-4-4h5-4--5-4~--| 
G -4------------4------| 
D 2------------2-------| x3 
A ---------------------| 
E ---------------------| 

Intro Rhythm 
E ----------------------| 
B ----------------------| 
G -----444--------------| 
D 2222-4440-666-7777-6--| x2 
A 2222-2220-666-7777-6--| 
E 0000----0-444-5555-4--| 


Verse 
E ----------------------| 
B ----------------------| 
G ----------------------| 
D -----444--------------| x4 
A 2222-2220-666-7777-6--| 
E 0000----0-444-5555-4--| 
PM.................... 


Intro Lead 
E ---------------------| 
B --5-4-4-4h5-4--5-4~--| 
G -4------------4------| 
D 2------------2-------| x2 
A ---------------------| 
E ---------------------| 

Intro Rhythm 
E ----------------------| 
B ----------------------| 
G -----444--------------| 
D 2222-4440-666-7777-6--| x2 
A 2222-2220-666-7777-6--| 
E 0000----0-444-5555-4--| 


Verse 
E ----------------------| 
B ----------------------| 
G ----------------------| 
D -----444--------------| x4 
A 2222-2220-666-7777-6--| 
E 0000----0-444-5555-4--| 
PM.................... 

E ---------------------| 
B ---------------------| 
G -----4444------------| 
D 2222-4444-6666-7777--| x4 
A 2222-2222-6666-7777--| 
E 0000------4444-5555--| 


Outro 
E ------------------| 
B ------------------| 
G ------------------| 
D ------------------| x4 
A ------------------| 
E 0000-2222-44444444 
                ^Bend 

E ------------------| 
B ------------------| 
G ------------------| 
D 2222-4444-66666666| x4 
A 2222-4444-66666666| 
E 0000-2222-44444444| 

End on 
 
		  

Full key step upFull key step up
Half key step upHalf key step up
Half key step downHalf key step down
Full key step downFull key step down
hide glossary

See also:

tabs Owen - Nobody's Nothing tabs Keaton Henson - If I'm To Die (acoustic) tabs From Indian Lakes - Paintings tabs Daughter - Smother tabs Owen - The Only Child Of Aergia tabs Keaton Henson - Lying To You Tab
e-chords

Other versions:

tabs Mixtapes - Russian House Dj
auto scroll beats size up size down change color hide chords drawings
tab show chords e-chords YouTube Clip e-chords hide all tabs e-chords go to top tab

share with facebook