Mississippi John Hurt

If You Dont Want Me

Mississippi John Hurt

tabs

by  TAMAMOREIRA

save to print version add songbook text version e-mail correct tuner
chordsukulelecavacokeyboardtabbassdrumsharmonicaflute Guitar Pro
close

there isn't a video lesson for this song

chords

If You Dont Want Me

	  		

Intro 

 D|---------------------|---------------------------------|---------------------------------| 
 A|---------------------|---------------------------------|---------------------------------| 
F#|---------------------|-----0-------0-------0-------0---|-----0-------0-------0-------0---| 
 D|------0---------0----|---------3-------0---------------|---------3-------0---------------| 
 A|---------------------|-------------------------2-------|-------------------------2-------| 
 D|-0---------0---------|-0-------------------------------|-0-------------------------------| 


 D|------2---2--------2----|------2---2--------2----| 
 A|------0---0--------0----|------0---0--------0----| 
F#|------------------------|------1---1--------1----| 
 D|------2------------2----|------2------------2----| 
 A|-0------------0---------|-0------------0---------| 
 D|------------------------|------------------------| 

MainLick 

 D|-----0-----0-------------|-----0-----0------------| 
 A|--------2------2---------|--------2------2--------| 
F#|----------------------0--|---------------------0--| 
 D|-----0------------3------|-----0------------3-----| 
 A|-------------------------|------------------------| 
 D|-0---------0-------------|-0---------0------------| 


Verse 

 D|------4---4--------4----|------2---2--------2----|-----0-----0-------------|-----0-----0------------| 
 A|------0---0--------0----|------0---0--------0----|--------2------2---------|--------2------2--------| 
F#|------------------------|------1---1--------1----|----------------------0--|---------------------0--| 
 D|------4------------4----|------2------------2----|-----0------------3------|-----0------------3-----| 
 A|------------------------|-0------------0---------|-------------------------|------------------------| 
 D|-0------------0---------|------------------------|-0---------0-------------|-0---------0------------| 
         If you don't want me,    got to  have me anyhow 
         It was late last night   and everything was still 
         I tried my best     to do my father's will 
         If you don't want me,    got to  have me anyhow 
         The sun goes down,       ain't this a lonesome place? 
         So lonesome here,   I    can't see in my baby's face 
         If you don't want me,    got to  have me anyhow 


 D|------2---2--------2----|------2---2--------2----| 
 A|------0---0--------0----|------0---0--------0----| 
F#|------------------------|------1---1--------1----| 
 D|------2------------2----|------2------------2----| 
 A|-0------------0---------|-0------------0---------| 
 D|------------------------|------------------------| 
         If you don't want me,    got to  have me anyhow 
         When me and my baby      eased out on the hill 
         I tried my best     to do my father's will 
         If you don't want me,    got to  have me anyhow 
         The sun goin' down,  and ain't this a lonesome place? 
         It's so lonesome here, I can't see in my baby's face 
         If you don't want me,    got to  have me anyhow 


Bridge 

 D|------0-------0---------------|------0-------0---------------| 
 A|-0--------2-------2-----------|-0--------2-------2-----------| 
F#|--------------------------0---|--------------------------0---| x2 
 D|------0---------------3-------|------0---------------3-------| 
 A|------------------------------|------------------------------| 
 D|-0------------0---------------|-0------------0---------------| 


Interlude 

 D|------4---4--------4----|------4---4--------4----|------7---7--------7----|------12--12-------12---| 
 A|------0---0--------0----|------0---0--------0----|------0---0--------0----|------0---0--------0----| 
F#|------0---0--------0----|------0---0--------0----|------0---0--------0----|------0---0--------0----| 
 D|------4------------4----|------4------------4----|------7------------7----|------12-----------12---| 
 A|--------------0---------|--------------0---------|--------------0---------|--------------0---------| 
 D|-0----------------------|-0----------------------|-0----------------------|-0----------------------| 


 D|------7---7--------7----|------0---0--------0----|------0---0--------0----|------4---4--------4----| 
 A|------0---0--------0----|------5---5--------5----|------5---5--------5----|------0---0--------0----| 
F#|------0---0--------0----|------0---0--------0----|------0---0--------0----|------0---0--------0----| 
 D|------7------------7----|------0------------0----|------0------------0----|------4------------4----| 
 A|--------------0---------|--------------5---------|--------------5---------|--------------0---------| 
 D|-0----------------------|-0----------------------|-0----------------------|-0----------------------| 


 D|------2---2--------2----|------2---2--------2----|------0---0--------0----|------0---0--------0----| 
 A|------0---0--------0----|------0---0--------0----|------0---0--------0----|------0---0--------0----| 
F#|------1---1--------1----|------1---1--------1----|------0---0--------0----|------0---0--------0----| 
 D|------2------------2----|------2------------2----|------0------------0----|------0------------0----| 
 A|--------------0---------|--------------0---------|--------------0---------|--------------0---------| 
 D|-0----------------------|-0----------------------|--0---------------------|-0----------------------| 


Outro 
                                                                        Downstroke 
 D|---------------------------------|---------------------------------|-0---------| 
 A|---------------------------------|---------------------------------|-0---------| 
F#|-----0-------0-------0-------0---|-----0-------0-------0-------0---|-0---------| 
 D|---------3-------0---------------|---------3-------0---------------|-0---------| 
 A|-------------------------2-------|-------------------------2-------|-0---------| 
 D|-0-------------------------------|-0-------------------------------|-0---------| 
		  

See also:

tabs Deep Purple - Black Night tabs Deep Purple - Soldier Of Fortune tabs Deep Purple - Demon's Eye tabs Ira! - Envelheço na Cidade tabs Deep Purple - Smoke on the Water (correct) tabs Ira! - Tarde Vazia (Acústico)
e-chords

Other versions:

tabs Mississippi John Hurt - If You Dont Want Me
auto scroll beats size up size down change color hide chords drawings
tab show chords e-chords YouTube Clip e-chords hide all tabs e-chords go to top tab

share