Misc Your Songs

Adrian Salmon - V 32 Tab

Misc Your Songs

Difficulty: nolevelnolevel

by gustsilva

tuner correct add songbook print version text version save to e-mail
chordsukulelecavacokeyboardtabbassdrumsharmonicsflute Guitar Pro
close

there isn't a video lesson for this song

request
chords

Adrian Salmon - V 32

  		verse 1 

e|---------------------------------------------------------------------------| 
B|-----3-----3-----3-----3-------------3-----3-----3-----3-------------------| 
G|---0-----0-----0-----0-----0---0---0-----0-----0-----0-----0---0-----------| 
D|---------------------------------------------------------------------------| 
A|---------------------------------------------------------------------------| 
E|-3-----3-----3-----3-----3---3---2-----2-----2-----2-----2---2-------------| 

e|---------------------------------------------------------------------------| 
B|-----3-----3-----5-----5-------------3-----3-----3-----5-----5-------------| 
G|---0-----0-----0-----0-----0---0---0-----0-----0-----0-----0-----0---0-----| 
D|---------------------------------------------------------------------------| 
A|---------------------------------------------------------------------------| 
E|-0-----0-----0-----0-----0---0---0-----0-----0-----0-----0-----0---0-------|x2 


Bridge 1 

e|---------------------------------------------------------------------------| 
B|-----8-----8-----8-----8-------------8-----8-----8-----8-------------------| 
G|---0-----0-----0-----0-----0---0---0-----0-----0-----0-----0---0-----------| 
D|---------------------------------------------------------------------------| 
A|---------------------------------------------------------------------------| 
E|-7-----7-----7-----7-----7---7---8-----8-----8-----8-----8---8-------------| 

e|---------------------------------------------------------------------------| 
B|-----8-----8-----8-----8-------------8-----8---------7h0-----5h0-----------| 
G|---0-----0-----0-----0-----0---0---0-----0---------0-------0---------------| 
D|---------------------------------------------------------------------------| 
A|-7-----7-----7-----7-----7---7---7-----7-----7---7-------5-----------------| 
E|---------------------------------------------------------------------------| 


Chorus 1 

e|---------------------------------------------------------------------------| 
B|-----3-----0-----1-----3-----3/5-----5-----0-----3---5-----5---------------| 
G|---0-----0-----0-----0-----0-------0-----0-----0---------0-----------------| 
D|---------------------------------------------------------------------------| 
A|-3-----3-----3-----3-----3-------5-----5-----5-----5---5-----5/7-----------| 
E|---------------------------------------------------------------------------| 

e|---------------------------------------------------------------------------| 
B|-----7-----0-----5-----7-----8-----8-----7-----7---------------------------| 
G|---0-----0-----0-----0-----0-----0-----0-----0-----------------------------| 
D|---------------------------------------------------------------------------| 
A|-7-----7-----7-----7-----7-----7-----7-----7-----7-------------------------| 
E|---------------------------------------------------------------------------|x2 


verse 2 

e|---------------------------------------------------------------------------| 
B|-----3-----0-----1-----0-----0-------3-----0-----5-----3-----0-------------| 
G|---0-----0-----0-----0-----0-------0-----0-----0-----0-----0---------------| 
D|---------------------------------------------------------------------------| 
A|---------------------------------------------------------------------------| 
E|-3-----3-----3-----3-----3-----3-2-----2-----2-----2-----2-----------------| 

e|---------------------------------------------------------------------------| 
B|------3-----0-----1-----1-----3-----3-----5-----5--------------------------| 
G|----0-----0-----0-----0-----0-----0-----0-----0-----0---0------------------| 
D|---------------------------------------------------------------------------| 
A|---------------------------------------------------------------------------| 
E|2-0-----0-----0-----0-----0-----0-----0-----0-----0---0--------------------| 

Bridge 2 

e|---------------------------------------------------------------------------| 
B|-----8-----8-----8-----8-------------8-----8-----8-----8-------------------| 
G|---0-----0-----0-----0-----0---0---0-----0-----0-----0-----0---0-----------| 
D|---------------------------------------------------------------------------| 
A|---------------------------------------------------------------------------| 
E|-7-----7-----7-----7-----7---7---8-----8-----8-----8-----8---8-------------| 

e|---------------------------------------------------------------------------| 
B|-----8-----8-----8-----8-------------8-----8-----------10-----10-----------| 
G|---0-----0-----0-----0-----0---0---0-----0-----0-----0------0------0-------| 
D|---------------------------------------------------------------------------| 
A|-7-----7-----7-----7-----7---7---7-----7-----7---7/9------9------9---------| 
E|---------------------------------------------------------------------------| 

Bridge 3 

e|---------------------------------------------------------------------------| 
B|-----8-----8-----8-----10-----8-------8-----8-----8------10-----10/12------| 
G|---0-----0-----0-----0------0-------0------0-----0-----0------0------------| 
D|---------------------------------------------------------------------------| 
A|---------------------------------------------------------------------------| 
E|-7-----7-----7-----7------7-----7-8-----8-----8-----8-------8--------------| 

e|---------------------------------------------------------------------------| 
B|-----8-----8-----8-----8-------------8-----8---------7h0-----5h0-----------| 
G|---0-----0-----0-----0-----0---0---0-----0-----0---0-------0---------------| 
D|---------------------------------------------------------------------------| 
A|-7-----7-----7-----7-----7---7---7-----7-----7---7-------5-----------------| 
E|---------------------------------------------------------------------------| 


Chorus 2 


e|---------------------------------------------------------------------------| 
B|-----3-----0-----1-----3-----3/5-----5-----0-----3---5-----5---------------| 
G|---0-----0-----0-----0-----0-------0-----0-----0---------0-----------------| 
D|---------------------------------------------------------------------------| 
A|---------------------------------------------------------------------------| 
E|-3-----3-----3-----3-----3-------5-----5-----5-----5---5-----5/7-----------| 

e|---------------------------------------------------------------------------| 
B|-----7-----0-----5-----7-----8-----7-----8-----7---------------------------| 
G|---0-----0-----0-----0-----0-----0-----0-----0-----------------------------| 
D|---------------------------------------------------------------------------| 
A|---------------------------------------------------------------------------| 
E|-7-----7-----7-----7-----7-----7-----7-----7-------------------------------|x2 



************************************ 

| h  Hammer-on 
| /  Slide up 

************************************ 
	  

Search Paypal
auto scroll beats size up size down change color hide chords drawings
tab show chords e-chords YouTube Clip e-chords hide all tabs e-chords go to top tab

share with facebook