Misc Christmas

home > Misc Christmas

Heidschi Bumbeidschi Tab

Misc Christmas

Difficulty: nolevelnolevel

by aleffederico

tuner correct add songbook print version text version save to e-mail
chordsukulelecavacokeyboardtabbassdrumsharmonicsflute Guitar Pro
chords

Heidschi Bumbeidschi

	  
Capo: 2

Verse 
E|-------------------|-0--------0---0----|-0---------0----|-3----1---------|-------------------| 
B|-------------------|-1--------1---1----|-1----3----1----|-0----0---------|-------------------| 
G|-----------0---0---|-------------------|----------------|----------------|-----------0---0---| 
D|------2----2-------|------2-------2----|------2----2----|------0----0----|------0----0-------| 
A|-3-----------------|-3-----------------|-3--------------|----------------|-------------------| 
E|-------------------|-------------------|----------------|-3--------------|-3-----------------| 

E|-1--------1---1----|-1----0----1----|-5----3---------|-----------3---3---|-0--------0---0----| 
B|-0--------0---0----|-0----0----0----|----------------|-------------------|-1--------1---1----| 
G|-------------------|----------------|------0----0----|------0----0-------|-------------------| 
D|------0-------0----|------0----0----|----------------|-------------------|------2-------2----| 
A|-------------------|----------------|-3--------------|-3-----------------|-3-----------------| 
E|-3-----------------|-3--------------|----------------|-------------------|-------------------| 

E|-0---------0----|-3----3----1----|-------------------|-1--------1---1----|-1----0----1----| 
B|-1----3----1----|-0----0----0----|-3-----------------|-0--------0---0----|-0----0----0----| 
G|----------------|----------------|-0---------0---0---|-------------------|----------------| 
D|------2----2----|------0----0----|------0----0-------|------0-------0----|------0----0----| 
A|-3--------------|----------------|-------------------|-------------------|----------------| 
E|----------------|-3--------------|-3-----------------|-3-----------------|-3--------------| 

E|-5----5----3----|-0-----------------|-0--------0---0----|-0---------0----|-1--------------| 
B|----------------|-------------------|-1--------1---1----|-1----3----1----|-1--------------| 
G|------0----0----|-----------0---0---|-------------------|----------------|----------------| 
D|----------------|------2----2-------|------2-------2----|------2----2----|------3----3----| 
A|-3--------------|-3-----------------|-3-----------------|-3--------------|----------------| 
E|----------------|-------------------|-------------------|----------------|-1--------------| 

E|-----------3---3---|-3----7--------3---|-1---------1----|-0--------------|-0------| 
B|-------------------|-0----0--------0---|-0---------0----|-0--------------|-1------| 
G|-----------0-------|------0------------|------0---------|----------------|-0------| 
D|------3------------|-------------------|-----------0----|----------------|--------| 
A|-------------------|-------------------|------2---------|-3--------------|-3------| 
E|-1-----------------|-3---------3-------|-3--------------|------3----0----|--------| 
	  

there isn't a video lesson for this song

request
Search
auto scroll beats size up size down change color hide chords drawings
tab show chords e-chords YouTube Clip e-chords hide all tabs e-chords go to top tab