Misc Children

home > Misc Children

Pinkfong - Baby Shark Tab

Misc Children

Difficulty: nolevelnolevel

by fernsantana

tuner correct add songbook print version text version save to e-mail
chordsukulelecavacokeyboardtabbassdrumsharmonicsflute Guitar Pro
chords

Pinkfong - Baby Shark

  		
NO CAPO 
Intro 
e|--------------------------------------------------------------| 
B|---------------------------3/4-3/4-3/4-3/4--------------------| 
G|--------------------------------------------------------------| 
D|--------------------------------------------------------------| 
A|--5h6----5h6---5h6--5h6--5/6-5/6-5/6-5/6----------------------| 
E|--------------------------------------------------------------| 

e|--------------------------------------------------------------| 
B|--------------------------------------------------------------| 
G|--------------------------------------------------------7-----| 
D|--5-3-5-6-5-3-0-3---5-3-5-6-5-3-0-3---5-3-5-6-5--3-5-6--x-----| 
A|--------------------------------------------------------5-----| 
E|--x-x-x-x-x-x-x-x---x-x-x-x-x-x-x-x---x-x-x-x-x--x-x-x--x-----| 

Verse 
e|-----0--3-3-3--3-3--3-3-----0--3-3-3--3-3--3-3----0--3-3-3--3-3-3-3--3-3--2----| 
B|--3-----3----------------3-----3----------------3----3--------------------3----| 
G|--------0----------------------0------------------------------------------2----| 
D|--------------------------------------------------------------------------0----| 
A|-------------------------------3-----------------------------------------------| 
E|--------3--------------------------------------------0-------------------------| 

e|-----0--3-3-3--3-3--3-3-----0--3-3-3--3-3--3-3----0--3-3-3--3-3-3-3--3-3--2----| 
B|--3-----3----------------3-----3----------------3----3--------------------3----| 
G|--------0----------------------0------------------------------------------2----| 
D|--------------------------------------------------------------------------0----| 
A|-------------------------------3-----------------------------------------------| 
E|--------3--------------------------------------------0-------------------------| 

Chorus 
e|-----------------------------------------------------------------------------------| 
B|-----------------------------------------------------------------------------------| 
G|------0-0-0--0-0--0-0-------0-0-0--0-0--0-0------0-0-0--0-0--0-0---0-0-------------| 
D|--0-2-0----------------0-2--2----------------0-2------------------------4----------| 
A|----------------------------3-------------------------------------------5----------| 
E|------3------------------------------------------0---------------------------------| 

e|-----0--3-3-3--3-3--3-3-----0--3-3-3--3-3--3-3----0--3-3-3--3-3-3-3--3-3--2----| 
B|--3-----3----------------3-----3----------------3----3--------------------3----| 
G|--------0----------------------0------------------------------------------2----| 
D|--------------------------------------------------------------------------0----| 
A|-------------------------------3-----------------------------------------------| 
E|--------3--------------------------------------------0-------------------------| 

e|-----0--3-3-3--3-3--3-3-----0--3-3-3--3-3--3-3----0--3-3-3--3-3-3-3--3-3--2----| 
B|--3-----3----------------3-----3----------------3----3--------------------3----| 
G|--------0----------------------0------------------------------------------2----| 
D|--------------------------------------------------------------------------0----| 
A|-------------------------------3-----------------------------------------------| 
E|--------3--------------------------------------------0-------------------------| 


e|-----0--3-3-3--3-3--3-3-----0--3-3-3--3-3--3-3----0--3-3-3--3-3-3-3--3-3--2----| 
B|--3-----3----------------3-----3----------------3----3--------------------3----| 
G|--------0----------------------0------------------------------------------2----| 
D|--------------------------------------------------------------------------0----| 
A|-------------------------------3-----------------------------------------------| 
E|--------3--------------------------------------------0-------------------------| 

Verse 
MOVE THE CAPO ON FIRST FRET 

 FAST 
e|-----0--3-3-3--3-3--3-3-----0--3-3-3--3-3--3-3----0--3-3-3--3-3-3-3--3-3--2----| 
B|--3-----3----------------3-----3----------------3----3--------------------3----| 
G|--------0----------------------0------------------------------------------2----| 
D|--------------------------------------------------------------------------0----| 
A|-------------------------------3-----------------------------------------------| 
E|--------3--------------------------------------------0-------------------------| 

 SLAP ONLY 
e|-----0--3-3-3--3-3--3-3-----0--3-3-3--3-3--3-3----0--3-3-3--3-3-3-3--3-3--2----| 
B|--3-----3----------------3-----3----------------3----3--------------------3----| 
G|--------0----------------------0------------------------------------------2----| 
D|--------------------------------------------------------------------------0----| 
A|-------------------------------3-----------------------------------------------| 
E|--------3--------------------------------------------0-------------------------| 

BEAT AGAIN 
e|-----0--3-3-3--3-3--3-3-----0--3-3-3--3-3--3-3----0--3-3-3--3-3-3-3--3-3--2----| 
B|--3-----3----------------3-----3----------------3----3--------------------3----| 
G|--------0----------------------0------------------------------------------2----| 
D|--------------------------------------------------------------------------0----| 
A|-------------------------------3-----------------------------------------------| 
E|--------3--------------------------------------------0-------------------------| 



************************************ 

| /  Slide up 
| h  Hammer-on 
| x  Dead note 

************************************ 
	  

Search Paypal
auto scroll beats size up size down change color hide chords drawings
tab show chords e-chords YouTube Clip e-chords hide all tabs e-chords go to top tab