Misc Cartoons

home > Misc Cartoons

Up - Married Life Tab

Misc Cartoons

Difficulty: nolevelnolevel

by hugo%5Frodrigues

tuner correct add songbook print version text version save to e-mail
chordsukulelecavacokeyboardtabbassdrumsharmonicsflute Guitar Pro
chords

Up - Married Life

	  
Verse 
E|--1----0--0--0--0--1-----0--| 
B|----------------------------| 
G|----------------------------| 
D|----------------------------| 
A|----------------------------| 
E|----------------------------| 

E|--1--5--1--0-----1--5--0-----------1--------| 
B|--------------------------3-----3-----3--1--| 
G|--------------------------------------------| 
D|--------------------------------------------| 
A|--------------------------------------------| 
E|--------------------------------------------| 

E|-----5--3--------5--3--1-----| 
B|--3-----------3-----------3--| 
G|-----------------------------|                                      
D|-----------------------------| 
A|-----------------------------| 
E|-----------------------------| 

E|-----5--3--------5--3--1-----| 
B|--3-----------3-----------3--| 
G|-----------------------------|                                      
D|-----------------------------| 
A|-----------------------------| 
E|-----------------------------| 

E|--1--3--1--0-----0--3--0-----------0-----------------| 
B|--------------------------1-----1-----1--------1-----| 
G|-----------------------------------------3--3-----3--| 
D|-----------------------------------------------------| 
A|-----------------------------------------------------| 
E|-----------------------------------------------------| 

E|-----------------0-----------0--| 
B|--------1-----3--------1--3-----| 
G|--2--3--------------------------| 
D|--------------------------------| 
A|--------------------------------| 
E|--------------------------------| 

E|--1--5--1--0-----1--5--0--------1--5-----0--| 
B|--------------------------3-----------3-----| 
G|--------------------------------------------| 
D|--------------------------------------------| 
A|--------------------------------------------| 
E|--------------------------------------------| 

E|-----1--0--------------1--| 
B|--3--------3-----0--3-----| 
G|--------------2-----------| 
D|--------------------------| 
A|--------------------------| 
E|--------------------------| 

E|--1--3--1--0-----0--3--0----------0-----------------------0----------0--| 
B|--------------------------1----1-----1-----------1-----3-------1--3-----| 
G|-------------------------------------------2--3-------------------------| 
D|------------------------------------------------------------------------| 
A|------------------------------------------------------------------------| 
E|------------------------------------------------------------------------| 

E|--1--5--1--0-----1--5--0--------1--5-----0--| 
B|--------------------------3-----------3-----| 
G|--------------------------------------------| 
D|--------------------------------------------| 
A|--------------------------------------------| 
E|--------------------------------------------| 

E|-----1--0--------------1--| 
B|--3--------3-----0--3-----| 
G|--------------2-----------| 
D|--------------------------| 
A|--------------------------| 
E|--------------------------| 

E|--1--3--1--0-----0--3--0----------0-----------------------0----------0--| 
B|--------------------------1----1-----1-----------1-----3-------1--3-----| 
G|-------------------------------------------2--3-------------------------| 
D|------------------------------------------------------------------------| 
A|------------------------------------------------------------------------| 
E|------------------------------------------------------------------------| 
	  

there isn't a video lesson for this song

request
Search
auto scroll beats size up size down change color hide chords drawings
tab show chords e-chords YouTube Clip e-chords hide all tabs e-chords go to top tab