Misc Cartoons

home > Misc Cartoons

Naruto Shippuden - Kikyou Tab

Misc Cartoons

Difficulty: nolevelnolevel

by educastilho

tuner correct add songbook print version text version save to e-mail
chordsukulelecavacokeyboardtabbassdrumsharmonicsflute Guitar Pro
chords

Naruto Shippuden - Kikyou

  		
Main Riff 
e|---------------------------------------| 
B|----12-13~~--10-12--------------8-5~---| 
G|--9----------------7-9~--7~---5--------| 
D|---------------------------------------| 
A|---------------------------------------| 
E|---------------------------------------| 

e|---------------------------------------| 
B|---12-13~--10-12-----------------------| 
G|-9---------------7-9~---7---9-7-5~-4-5-| 
D|---------------------------------------| 
A|---------------------------------------| 
E|---------------------------------------| 

e|---------------------------------------| 
B|-----10-12-13~--10-8-------------------| 
G|----------------------7-9-10~--7-9~~---| 
D|---------------------------------------| 
A|---------------------------------------| 
E|---------------------------------------| 

e|------------------12---10-12-10-5-8-7-3| 
B|-10-12-13~--10-8-----------------------| 
G|---------------------------------------| 
D|---------------------------------------| 
A|---------------------------------------| 
E|---------------------------------------| 

e|---------------------------------------| 
B|----12-13~~--10-12--------------8-5~---| 
G|--9----------------7-9~--7~---5--------| 
D|---------------------------------------| 
A|---------------------------------------| 
E|---------------------------------------| 

e|---------------------------------------| 
B|---12-13~--10-12-----------------------| 
G|-9---------------7-9~---7---9-7-5~-4-5-| 
D|---------------------------------------| 
A|---------------------------------------| 
E|---------------------------------------| 

e|---------------------------------------| 
B|---------------------------------------| 
G|--------7---9-7-5~-4-5-----------------| 
D|---------------------------------------| 
A|---------------------------------------| 
E|---------------------------------------| 



************************************ 

| ~   Vibrato 

************************************ 
	  

Search Paypal
auto scroll beats size up size down change color hide chords drawings
tab show chords e-chords YouTube Clip e-chords hide all tabs e-chords go to top tab