Message To Bears

At The Top Of This Hill

Message To Bears

tabs

by  TERCMORAES

save to print version add songbook text version e-mail correct tuner
chordsukulelecavacokeyboardtabbassdrumsharmonicaflute Guitar Pro
close

there isn't a video lesson for this song

chords

At The Top Of This Hill

	  		 

 

 

The entire song is based around this one acoustic line that is looped over and over. 
The note in parentheses is more subtle than the rest, but is played most of the time.  

e|---------------------------------------------------------2-----------0-----| 
B|---3-----------3-----3-----------3-----3-----------3-----------------------| 
G|---------2-----------------2-----------------2-----------------2-----------| 
D|------0----(0)----0-----0----(0)----0-----0----(0)----0-----0----(0)----0--| 
A|---2-----------------2-----------------2-----------------2-----------------| 
E|---------------------------------------------------------------------------| 

e|---------------------------------------------------------2-----------0-----| 
B|---3-----------3-----3-----------3-----3-----------3-----------------------| 
G|---------2-----------------2-----------------2-----------------2-----------| 
D|------0----(0)----0-----0----(0)----0-----0----(0)----0-----0----(0)----0--| 
A|---0-----------------0-----------------0-----------------0-----------------| 
E|---------------------------------------------------------------------------| 

e|---------------------------------------------------------------------------| 
B|---3-----------3-----3-----------3-----3-----------3-----2-----------2-----| 
G|---------2-----------------2-----------------2-----------------2-----------| 
D|------0----(0)----0-----0----(0)----0-----0----(0)----0-----0----(0)----0--| 
A|---------------------------------------------------------------------------| 
E|---3-----------------3-----------------3-----------------3-----------------| 


************************************ 

| /   slide up 
| \   slide down 
| h   hammer-on 
| p   pull-off 
| ~   vibrato 
| +   harmonic 
| x   Mute note 
| b   Bend 
| pb  Pre-bend 
| br  Bend release 
| pbr Pre-bend release 
| brb Bend release bend 

************************************ 
		  

See also:

tabs Ira! - Poço de Sensibilidade (Solo - Acustico Mtv) tabs Deep Purple - Smoke On The Water tabs Deep Purple - Smoke on the water (intro) tabs Ira! - Eu Quero Sempre Mais (Com Pitty, intro) tabs Deep Purple - Smoke on the Water (ver. 2) tabs Deep Purple - Knocking At Your Back Door
e-chords

Other versions:

tabs Message To Bears - At The Top Of This Hill
auto scroll beats size up size down change color hide chords drawings
tab show chords e-chords YouTube Clip e-chords hide all tabs e-chords go to top tab

share