Mayonnaise

Kumander Tab

Mayonnaise

Difficulty: nolevelnolevel

by aleffederico

tuner correct add songbook print version text version save to e-mail
chordsukulelecavacokeyboardtabbassdrumsharmonicsflute Guitar Pro
close

there isn't a video lesson for this song

request
chords

Kumander

  		Solo Other guitar 

Eb|---------------------------------------------------------------------------| 
Bb|--------------------10-9--------9h10p9-------------------------------------| 
Gb|-------------------------11-9----------11-9--6h7p6---12pbr-12b-10-12-------| 
Db|-7-9-11-12-14-12-11--------------------------------------------------------| 
Ab|---------------------------------------------------------------------------| 
Eb|---------------------------------------------------------------------------| 

Solo Other guitar 

Eb|---------------------------------------------------------------------------| 
Bb|----------10-------14-12-10-9---12h14p12--10-9-5/7\5---17pbr-17b--15-17----| 
Gb|-6-7-9-11----11-9----------------------------------------------------------| 
Db|---------------------------------------------------------------------------| 
Ab|---------------------------------------------------------------------------| 
Eb|---------------------------------------------------------------------------| 



************************************ 

| b    Bend 
| h    Hammer-on 
| p    Pull-off 
| pbr  Pre-bend release 
| /    Slide up 
| \    Slide down 

************************************ 
	  

Search Paypal
auto scroll beats size up size down change color hide chords drawings
tab show chords e-chords YouTube Clip e-chords hide all tabs e-chords go to top tab

share with facebook