Machine Head

From this day

Machine Head

tabs

save to print version add songbook text version e-mail correct tuner
chordsukulelecavacokeyboardtabbassdrumsharmonicaflute Guitar Pro
close

there isn't a video lesson for this song

chords

From this day

	  		Riff 1 (4x no começo)  
                                                                                
C#||--10b---------------|---------------------------|-------------------------| 
G#||--------------------|---------------------------|-------------------------| 
E ||--------------------|--------8--7-----7---------|--------8--7-----7--6~---| 
B ||--------------------|--------------8-----10--6--|--------------8----------| 
F#||--------------------|--0--0---------------------|--0--0-------------------| 
B ||--------------------|--0--0---------------------|--0--0-------------------| 
 
 
                                                       
---------------------------|-------------------------| 
---------------------------|--------------------9~---| 
--------8--7-----7---------|--------8--7-----7-------| 
--------------8-----10--6--|--------------8----------| 
--0--0---------------------|--0--0-------------------| 
--0--0---------------------|--0--0-------------------| 
 
 
Riff 2 
(4x) 
                                                                 
-------------------------------|-------------------------------| 
-------------------------------|-------------------------------| 
-------------------------------|-------------------------------| 
-------------------------------|-------------------------------| 
-------------------------------|-------------------------------| 
--0-0--0-0-0--0-0-0--0-3-6-6-6-|--0-0--0-0-0--0-0-0--0-3-6-6-6-| 
 
 
                                                                        
-------------------------------|--------------------------------------| 
-------------------------------|--------------------------------------| 
-------------------------------|--------------------------------------| 
-------------------------------|--------------------------------------| 
-------------------------------|--------------------------------------| 
--0-0--0-0-0--0-0-0--0-3-6-6-6-|--0-0--0-0-0--0-0-12-11-10-0-12-11-10-| 
 
Riff 3 (base da parte cantada, varias vezes ate o refrão) 
                                                                   
---------------------|---------------------|---------------------| 
---------------------|---------------------|---------------------| 
---------------------|---------------------|---------------------| 
--0-------0---0------|--0-------0---0------|--0-------0---0------| 
--0-------0---0------|--0-------0---0------|--0-------0---0------| 
--0-------0---0------|--0-------0---0------|--0-------0---0------| 
 
 
Riff 4 (Refrao) (2x) depois volta no refrao acima) 
                                                                 
-------------------------------|-------------------------------| 
-------------------------------|-------------------------------| 
-------------------------------|-------------------------------| 
-------------------------------|-------------------------------| 
-------------------------------|-------------------------------| 
--0-0--0-0-0--0-0-0--0-3-6-6-6-|--3-3--3-3-3--3-3-3--3-3-6-6-6-| 
 
 
                                                                            
-------------------------------|------------------------------------------| 
-------------------------------|------------------------------------------| 
-------------------------------|------------------------------------------| 
-------------------------------|------------------------------------------| 
-------------------------------|------------------------------------------| 
--8-8--8-8-8--8-8-8--8-8-7-7-7-|--10-10--10-10-10--10-11-11--11-11-11--11-| 
 
 
 
Riff 5 paradinha no meio da musica (com muito efeito de pedaleira) 
depois volta pro riff 3    (depois volta pra intro riff 1 e  vai direto 
pro refrão riff 3 )                                           
                  
--------------------|--------------------|---------------------| 
--------------------|--------------------|---------------------| 
--7--------7b-------|--7--------7b-------|---------------------| 
--------------------|--------------------|--0-------0---0------| 
--5--------5b-------|--5--------5b-------|--0-------0---0------| 
--------------------|--------------------|--0-------0---0------| 
 
riff 7 (intro da parte mais pesada abaixo descrita) 
|----------------------------------| 
|----------------------------------| 
|----------------------------------| 
|--5-5-5-5-5-5-5-5-5-5-5-5-5-5-5-5-| 
|----------------------------------| 
|----------------------------------| 
 
 
                                                                            
------------------------|------------------------|------------------------| 
------------------------|------------------------|------------------------| 
------------------------|------------------------|------------------------| 
--0---1---2--0---1---3--|--0---1---2--0---1---3--|--0---1---2--0---1---3--| 
--0---1---2--0---1---3--|--0---1---2--0---1---3--|--0---1---2--0---1---3--| 
--0---1---2--0---1---3--|--0---1---2--0---1---3--|--0---1---2--0---1---3--| 
 
 
                                                                            
------------------------| 
------------------------| 
------------------------| 
--0---6---0--6---0---6--| 
--0---6---0--6---0---6--| 
--0---6---0--6---0---6--| 
  
depois volta pro riff 1 da intro, ai da uma parada e volta pro riff 4 do 
refrão mas repete ela mais vezes)  
                          

		  

See also:

tabs Guns N' Roses - Sweet Child o' mine tabs The Offspring - Come Out and Play tabs Guns N' Roses - Live and Let Die tabs Guns N' Roses - November Rain tabs Foo Fighters - Times Like These tabs Simon & Garfunkel - Sounds of silence
e-chords

Other versions:

tabs Machine Head - From this day
auto scroll beats size up size down change color hide chords drawings
tab show chords e-chords YouTube Clip e-chords hide all tabs e-chords go to top tab

share