Machine Head

Eyes Of The Dead

Machine Head

tabs

by  TERR_SCHMITZ

save to print version add songbook text version e-mail correct tuner
chordsukulelecavacokeyboardtabbassdrumsharmonicaflute Guitar Pro
close

there isn't a video lesson for this song

chords

Eyes Of The Dead

	  		
Tuning: C# Standard (C#  F#, B, E, G#, C#) 

Machine Head don't play in C# Standard precisely... They are tuned to 
C# Standard but then tuned up 40 cents sharper. 


On a Korg tuner it would look something like this 

Tuner: 
50                            x  50# 
|--|--|--|--|--C#--|--|--|--|--| 

The 'x' indicates where your tuning should be 

Also comment, correct, and please, please rate!!! 


Guitar 1:        Robb Flynn 
Guitar 2:        Phil Demmel 
Guitar 3:        Harmony 

Tabbing Legend 
Hammer on:          h 
Pull off:           p 
Slide up:           / 
Slide down:         \ 
Natural Harmonic:   NH 
Pinch Harmonic:     PH 
Bend:               BU(?) 
Whammy Bar Rise:    WBR 
Whammy Bar Lower:   WBL 
Whammy Bar Vibrato: WB~~~ 
Tremelo Pick:       Tr--- 
Tapped note:        T 
Trill:              tr (rapid hammer on?s and pull off?s) 
Muted note:         M 
Palm Mute:          PM--- 
Killswitch:         K (can use bridge selector) 
Quick bend:         ^ 
Pick Slide:         X\\\ 
Whammy Pedal:       + 

____________________________________________________________________________ 


Intro 
Guitar 1 (Clean Chorus Flange) 
||-------------------------------------------------| 
|o-------------------------------------------------| 
||-------------------------------------------------| 
||-------------------------------------------------| 
|o-------------3-----------2-----------------------| 
||-0-----------------------------------3-----------| 

|-------------------------------------------------| 
|-------------------------------------------------| 
|-------------------------------------------------| 
|-------------------------------------------------| 
|-------------7-----------5-----------9-----------| 
|-0-----------------------------------------------| 

|-------------------------------------------------| 
|-------------------------------------------------| 
|-------------------------------------------------| 
|-------------5-----------4-----------7-----------| 
|-------------------------------------------------| 
|-0-----------------------------------------------| 

|-------------------------------------------------|| 
|-------------------------------------------------o| 
|-------------------------------------------------|| 
|-------------9-----------7-----------10----------|| 
|-------------------------------------------------o| 
|-0-----------------------------------------------|| 

Guitar 2 plays a tapping riff building up in the background 
As shown in next the following section 

____________________________________________________________________________ 


Build-up riff 
Guitar 1 
|-------------------------------------------------| 
|-------------------------------------------------| 
|-------------------------------------------------| 
|-------------2-----------0-----------------------| 
|-2-----------3-----------2-----------2-2-2-2-2-2-| 
|-0-----------------------------------3-3-3-3-3-3-| 
| 
|Guitar 2 
|  T       T  T       T  T       T  T       T  T 
|-12p11p8-12-12p11p8-12-12p11p8-12-12p11p8-12-12p11p8-| 
|-----------------------------------------------------| 
|-----------------------------------------------------| 
|-----------------------------------------------------| 
|-----------------------------------------------------| 
|-----------------------------------------------------| 

Guitar 2 (con?t) 
   T  T       T  T        T  T        T 
|-12-12p11p8-14-14p12p11-14-14p12p11-15-| 
|---------------------------------------| 
|---------------------------------------| 
|---------------------------------------| 
|---------------------------------------| 
|---------------------------------------| 

Guitar 1 
|-------------------------------------------------| 
|-------------------------------------------------| 
|-------------------------------------5-5-5-5-5-5-| 
|-------------5-----------4-----------2-2-2-2-2-2-| 
|-2-----------7-----------5-----------3-3-3-3-3-3-| 
|-0-----------------------------------------------| 
| 
|Guitar 2 
|  T        T  T        T  T        T  T        T  T 
|-15p14p12-15-15p14p12-15-15p14p12-15-15p14p12-15-15p14p12-| 
|----------------------------------------------------------| 
|----------------------------------------------------------| 
|----------------------------------------------------------| 
|----------------------------------------------------------| 
|----------------------------------------------------------| 

Guitar 2 (con?t) 
   T  T        T  T        T  T        T 
|-15-15p14p12-17-17p15p14-17-17p15p14-19-| 
|----------------------------------------| 
|----------------------------------------| 
|----------------------------------------| 
|----------------------------------------| 
|----------------------------------------| 


Guitar 1 
|-------------------------------------------------| 
|-------------------------------------------------| 
|-------------------------------------------------| 
|-------------10----------9-----------7-----------| 
|-2-----------12----------10----------9-----------| 
|-0-----------------------------------------------| 
| 
|Guitar 2 
|  T        T  T        T  T        T  T        T  T 
|-19p17p15-19-19p17p15-19-19p17p15-19-19p17p15-19-19p17p15-| 
|----------------------------------------------------------| 
|----------------------------------------------------------| 
|----------------------------------------------------------| 
|----------------------------------------------------------| 
|----------------------------------------------------------| 

Guitar 2 (con?t) 
   T  T        T  T        T  T        T 
|-19-19p17p15-20-20p19p17-20-20p19p17-24-| 
|----------------------------------------| 
|----------------------------------------| 
|----------------------------------------| 
|----------------------------------------| 
|----------------------------------------| 

Guitar 1 
|-------------------------------------------------| 
|-------------------------------------------------| 
|-------------------------------------------------| 
|-------------14----------12----------9-----------| 
|-2-----------15----------14----------10----------| 
|-0-----------------------------------------------| 
| 
|Guitar 2 
|  T        T  T        T  T        T  T        T  T 
|-24p22p19-24-24p22p19-24-24p22p19-24-24p22p19-24-24p22p19-| 
|----------------------------------------------------------| 
|----------------------------------------------------------| 
|----------------------------------------------------------| 
|----------------------------------------------------------| 
|----------------------------------------------------------| 

Guitar 2 (con?t) 
   T  T        T  T        T  T        T 
|-24-24p22p19-24-24p22p19-24-24p22p19-24-| 
|----------------------------------------| 
|----------------------------------------| 
|----------------------------------------| 
|----------------------------------------| 
|----------------------------------------| 


____________________________________________________________________________ 



Pre-verse 
Both guitars 
|-------------------------------------------------| 
|-------------------------------------------------| 
|-------------------------------------------------| 
|-4-4---4-----2-2---2-----5-5---5-----4-4---4-----| 
|-2-2---2---x-0-0---0---x-3-3---3---x-2-2---2---x-| 
|-----------x-----------x-----------x-----------x-| 


____________________________________________________________________________ 


verse 1 (Variation) 
Guitar 1 (Phaser) 
|-------------------------------------------------| 
|-------------------------------------------------| 
|-------------------------------------------------| 
|-------------------------------------------------| 
|-7-----------------------------------------------| 
|-------------------------------------------------| 
| 
|Guitar 2 
|-------------------------------------------------| 
|-------------5p0h5h8p5p0-------------5p0h5h8p5p0-| 
|-------------------------------------------------| 
|-5p2---9p5---------------5p2---9p5---------------| 
|-------------------------------------------------| 
|-----0-----0-----------------0-----0-------------| 

Guitar 1 (Phaser) 
|-------------------------------------------------| 
|-------------------------------------------------| 
|-------------------------------------------------| 
|-------------------------------------------------| 
|-6-----------------------------------------------| 
|-------------------------------------------------| 
| 
|Guitar 2 
|-------------------------------------------------| 
|-------------4p0h4h7p4p0-------------4p0h4h7p4p0-| 
|-------------------------------------------------| 
|-4p1---7p4---------------4p1---7p4---------------| 
|-------------------------------------------------| 
|-----0-----0-----------------0-----0-------------| 

Guitar 1 (Phaser) 
|-------------------------------------------------| 
|-------------------------------------------------| 
|-------------------------------------------------| 
|-------------------------------------------------| 
|-3-----------------------------------------------| 
|-------------------------------------------------| 
| 
|Guitar 2 
|---------------------------------------------------| 
|---------------------------------------------------| 
|--------------5p0h5h9p5p0--------------5p0h5h9p5p0-| 
|---------------------------------------------------| 
|-7p3---10p7---------------7p3---10p7---------------| 
|-----0------0-----------------0------0-------------| 

Both guitars 
|-------------------------------------------------| 
|-------------------------------------------------| 
|-------------------------------------------------| 
|-4-4---4-----2-2---2-----5-5---5-----4-4---4-----| 
|-2-2---2---x-0-0---0---x-3-3---3---x-2-2---2---x-| 
|-----------x-----------x-----------x-----------x-| 

____________________________________________________________________________ 


verse 1 
Both guitars 
|-------------------------------------------------| 
|-------------5p0h5h8p5p0-------------5p0h5h8p5p0-| 
|-------------------------------------------------| 
|-5p2---9p5---------------5p2---9p5---------------| 
|-------------------------------------------------| 
|-----0-----0-----------------0-----0-------------| 

|-------------------------------------------------| 
|-------------4p0h4h7p4p0-------------4p0h4h7p4p0-| 
|-------------------------------------------------| 
|-4p1---7p4---------------4p1---7p4---------------| 
|-------------------------------------------------| 
|-----0-----0-----------------0-----0-------------| 

|---------------------------------------------------| 
|---------------------------------------------------| 
|--------------5p0h5h9p5p0--------------5p0h5h9p5p0-| 
|---------------------------------------------------| 
|-7p3---10p7---------------7p3---10p7---------------| 
|-----0------0-----------------0------0-------------| 

|-------------------------------------------------| 
|-------------------------------------------------| 
|-------------------------------------------------| 
|-4-4---4-----2-2---2-----5-5---5-----4-4---4-----| 
|-2-2---2---x-0-0---0---x-3-3---3---x-2-2---2---x-| 
|-----------x-----------x-----------x-----------x-| 


____________________________________________________________________________ 



Pre-Chorus 
Guitar 1 
|----------------------------------------------------------| 
|----------------------------------------------------------| 
|-9-9---9-----7-7---7-----12-12---12-----10-10-10-10-10-10-| 
|----------------------------------------------------------| 
|-7-7---7---x-5-5---5---x-10-10---10---x--8--8--8--8--8--8-| 
|-----------x-----------x--------------x-------------------| 
| 
|Guitar 2 
|-------------------------------------------------------------| 
|-------------------------------------------------------------| 
|-9-9---9-----11-11---11-----12-12---12-----10-10-10-10-10-10-| 
|-------------------------------------------------------------| 
|-7-7---7---x--9--9----9---x-10-10---10---x--8--8--8--8--8--8-| 
|-----------x--------------x--------------x-------------------| 


____________________________________________________________________________ 


Chorus 
Both guitars 
|-------------------------------------------------| 
|-------------------------------------------------| 
|-------------------------------------------------| 
|-------------------------------------------------| 
|-------------------------------------------------| 
|-0---0---0-0-1p0-0-0---0---0-0-1p0-0-1BU(3)---(1)| 

              NH          NH 
|-------------------------------------------------| 
|-------------------------------------------------| 
|-------------5-----------5-----------------------| 
|-------------------------------------------------| 
|-------------------------------------------------| 
|-0---0---0-0---0---0---0---0---0---0-1-1-1-1-1-1-| 

Guitar 1 
|---------------------------------------------------------| 
|---------------------------------------------------------| 
|-9-9---9---9---11---11---11-12-12---12---12-11---11---11-| 
|---------------------------------------------------------| 
|-7-7---7---7----9----9----9-10-10---10---10--9----9----9-| 
|---------------------------------------------------------| 
| 
|Guitar 2 
|---------------------------------------------------------| 
|-12-12---12---12---10---10---10-8-8---8---8-10---10---10-| 
|---------------------------------------------------------| 
|--9--9----9----9----7----7----7-5-5---5---5--7----7----7-| 
|---------------------------------------------------------| 
|---------------------------------------------------------| 

Guitar 1 
|-------------------------------------------------| 
|-------------------------------------------------| 
|-------------------------------------------------| 
|-5-5-5-5-5-5-5-5-5-5-5-5-4-4-4-4-4-4-4-4-4-4-4-4-| 
|-3-3-3-3-3-3-3-3-3-3-3-3-2-2-2-2-2-2-2-2-2-2-2-2-| 
|-------------------------------------------------| 
| 
|Guitar 2 
|-------------------------------------------------| 
|-------------------------------------------------| 
|-5-5-5-5-5-5-5-5-5-5-5-5-4-4-4-4-4-4-4-4-4-4-4-4-| 
|-------------------------------------------------| 
|-3-3-3-3-3-3-3-3-3-3-3-3-2-2-2-2-2-2-2-2-2-2-2-2-| 
|-------------------------------------------------| 


____________________________________________________________________________ 


Chorus End 
Both guitars 
|-------------------------------------------------| 
|-------------------------------------------------| 
|-------------------------------------------------| 
|-5-----------4-----------------------------------| 
|-3-----5-----2---5---3---2-----------------------| 
|-------3---------3---1---0-----------------------| 

____________________________________________________________________________ 


Bridge Solo 
Guitar 2 (straight after the final chord on the ?Chorus End?) 
      NH 
|-------------------| 
|-------------------| 
|-WBL-4---WBR//////-| 
|-------------------| 
|-------------------| 
|-------------------| 

Solo Rhythm 
Guitar 1 
          PM  PM---   PM  PM---   PM  PM---   PM  PM--- 
|-----|-------------------------------------------------| 
|-----|-------------------------------------------------| 
|-----|-------------------------------------------------| 
|-----|-5---2-------5---2-------5---2-------5---2-------| 
|-12\-|-------------------------------------------------| 
|-12\-|---0---0-0-0---0---0-0-0---0---0-0-0---0---0-0-0-| 

Guitar 1 (con?t) 
    PM  PM---   PM  PM---   PM  PM---   PM  PM--- 
|-------------------------------------------------| 
|-------------------------------------------------| 
|-------------------------------------------------| 
|-5---4-------5---4-------5---4-------5---4-------| 
|-------------------------------------------------| 
|---3---3-3-3---3---3-3-3---3---3-3-3---3---3-3-3-| 

Guitar 1 (con?t) 
    PM  PM---   PM  PM---   PM  PM---   PM  PM--- 
|-------------------------------------------------| 
|-------------------------------------------------| 
|-5---4-------5---4-------5---4-------5---4-------| 
|-------------------------------------------------| 
|---3---3-3-3---3---3-3-3---3---3-3-3---3---3-3-3-| 
|-------------------------------------------------| 

Guitar 1 (con?t) 
    PM  PM---   PM  PM---   PM  PM---   PM  PM--- 
|-------------------------------------------------| 
|-------------------------------------------------| 
|-9---8-------9---8-------9---8-------9---8-------| 
|-------------------------------------------------| 
|---6---6-6-6---6---6-6-6---6---6-6-6---6---6-6-6-| 
|-------------------------------------------------| 


Guitar 2 
|------------------------------------------------| 
|------------------------------------------------| 
|-2-------BU-------(4)---------------2BU(4)PH~~~-| 
|------------------------------------------------| 
|------------------------------------------------| 
|------------------------------------------------| 

Guitar 2 
|-------------------------------------------------------| 
|-------------------------------------------------------| 
|-/9p8~~~~-11~~~~-------8tr9-9tr11-11tr12-12tr14-14tr16-| 
|-----------------9tr10---------------------------------| 
|-------------------------------------------------------| 
|-------------------------------------------------------| 
| 
|Guitar 3 
|--------------------------------------------------------| 
|-/8p7~~~~-10~~~~-------------8tr10-10tr12-12tr13-13tr16-| 
|-----------------8tr9-11tr12----------------------------| 
|--------------------------------------------------------| 
|--------------------------------------------------------| 
|--------------------------------------------------------| 

Guitar 2 
|-------------------------------| 
|-------------------------------| 
|-16---BU---(17)~~~-16BU(17)~~~-| 
|-------------------------------| 
|-------------------------------| 
|-------------------------------| 
| 
|Guitar 3 
|-------------------------------| 
|-16---BU---(17)~~~-16BU(17)~~~-| 
|-------------------------------| 
|-------------------------------| 
|-------------------------------| 
|-------------------------------| 

Guitar 2 
|-0h8h11h12p11p8p0h8h11/15p14h15-| 
|--------------------------------| 
|--------------------------------| 
|--------------------------------| 
|--------------------------------| 
|--------------------------------| 

Guitar 2 
  Tr------------------------------------------------ 
|-12---11---12---14---12---14---15---14---15---17BU(19)~~~-| 
|----------------------------------------------------------| 
|----------------------------------------------------------| 
|----------------------------------------------------------| 
|----------------------------------------------------------| 
|----------------------------------------------------------| 


____________________________________________________________________________ 


Repeat verse 1 

Repeat Pre-Chorus 

Repeat Chorus 

Repeat Chorus End x3 
____________________________________________________________________________ 


Breakdown 
Guitar 2 
  NH Dive Bomb    PM-----             PM-----     PM-----     PM- 
|-----------------------------------------------------------------| 
|-----------------------------------------------------------------| 
|-5-WBL\\\\\\\\\\-------------------------------------------------| 
|-----------------------------------------------------------------| 
|-----------------2-2---2-2-----------2-2---2-2---2-2---2-2---2-2-| 
|-----------------0-0---0-0-----------0-0---0-0---0-0---0-0---0-0-| 
| 
|Guitar 1         PM-----             PM-----     PM-----     PM- 
|-----------------------------------------------------------------| 
|-----------------------------------------------------------------| 
|-----------------------------------------------------------------| 
|-----------------------------------------------------------------| 
|-----------------2-2---2-2-----------2-2---2-2---2-2---2-2---2-2-| 
|-----------------0-0---0-0-----------0-0---0-0---0-0---0-0---0-0-| 

Guitar 2 
  NH Dive Bomb    PM-----             PM------------------------- 
|-----------------------------------------------------------------| 
|-----------------------------------------------------------------| 
|-5-WBL\/WBR(5)\\-------------------------------------------------| 
|-----------------------------------------------------------------| 
|-----------------2-2---2-2-----------4---3---2---3---4---3---2---| 
|-----------------0-0---0-0-----------2---1---0---1---2---1---0---| 
| 
|Guitar 1         PM-----             PM------------------------- 
|-----------------------------------------------------------------| 
|-----------------------------------------------------------------| 
|-----------------------------------------------------------------| 
|-----------------------------------------------------------------| 
|-----------------2-2---2-2-----------4---3---2---3---4---3---2---| 
|-----------------0-0---0-0-----------2---1---0---1---2---1---0---| 


____________________________________________________________________________ 



Breakdown Variation 
Guitar 2 
  NH Dive Bomb    PM-----             PM-----     PM-----     PM- 
|-----------------------------------------------------------------| 
|-----------------------------------------------------------------| 
|-5-WBL\\\\\\\\\\-------------------------------------------------| 
|-------------------------2-------------------2-----------2-------| 
|-----------------1-1---1-1-----------1-1---1-1---1-1---1-1---1-1-| 
|-----------------0-0---0-0-----------0-0---0-0---0-0---0-0---0-0-| 
| 
|Guitar 1         PM-----             PM-----     PM-----     PM- 
|-----------------------------------------------------------------| 
|-----------------------------------------------------------------| 
|-----------------------------------------------------------------| 
|-------------------------2-------------------2-----------2-------| 
|-----------------1-1---1-1-----------1-1---1-1---1-1---1-1---1-1-| 
|-----------------0-0---0-0-----------0-0---0-0---0-0---0-0---0-0-| 

Guitar 2 
  NH Dive Bomb    PM-----             PM------------------------- 
|-----------------------------------------------------------------| 
|-----------------------------------------------------------------| 
|-5-WBL\/WBR(5)\\-------------------------------------------------| 
|-------------------------2---------------------------------------| 
|-----------------1-1---1-1-----------3---2---1---2---3---2---1---| 
|-----------------0-0---0-0-----------2---1---0---1---2---1---0---| 
| 
|Guitar 1         PM-----             PM------------------------- 
|-----------------------------------------------------------------| 
|-----------------------------------------------------------------| 
|-----------------------------------------------------------------| 
|-------------------------2---------------------------------------| 
|-----------------1-1---1-1-----------3---2---1---2---3---2---1---| 
|-----------------0-0---0-0-----------2---1---0---1---2---1---0---| 


____________________________________________________________________________ 


Pre-solo 
Guitar 1 
      PM-------------------------     PM----------------- 
|-----------------------------------------------------------------| 
|-----------------------------------------------------------------| 
|-----------------------------------------------------------------| 
|-----------------------------------------------------------------| 
|-4-------------------------------4-----------------------4-/-5---| 
|-2---2-2-2-2-2-2-2-2-2-2-2-2-2-2-2---2-2-2-2-2-2-2-2-2-2-2-/-3---| 
| 
|Guitar 2 
|-----------------------------------------------------------------| 
|-----------------------------------------------------------------| 
|-----------------------------------------------------------------| 
|-----------------------------------------------------------------| 
|-4-------------------------------4-------------------------------| 
|-2-------------------------------2-------------------------------| 

____________________________________________________________________________ 


Solo 1 (Phil Demmel) 
Guitar 1 (Rhythm) 
   PM-   PM-   PM-   PM  PM  PM 
||---------------------------------|| 
|o---------------------------------o| 
||---------------------------------|| 
||-----5-----4---------------------|| 
|o-----------------5---4-----------o| 
||-2-2---2-2---2-2---2---2-5-2-3~~-|| 

Guitar 2 (Lead) 
|-17~~~~~~~~~~~~~~-17~~~~~~~~~~~~~~-| 
|-20BU(22)~~~~~~~~-20BU(22)~~~~~~~~-| 
|-----------------------------------| 
|-----------------------------------| 
|-----------------------------------| 
|-----------------------------------| 

|-19p14----14----------------------------------| 
|-------17----17p14-17p14----14----------------| 
|-------------------------16----16p14\13~~~~~~-| 
|----------------------------------------------| 
|----------------------------------------------| 
|----------------------------------------------| 

|-------------------------------------------------------------------------| 
|-------------------------------------------------------------------------| 
|-18p14----18p14----18p14----18p14----19p14----19p14----19p14----19p14----| 
|-------16-------16-------16-------16-------16-------16-------16-------16-| 
|-------------------------------------------------------------------------| 
|-------------------------------------------------------------------------| 

|-------------------------------------------------------------------------| 
|-------------------------------------------------------------------------| 
|-21p14-14-21p14-14-21p14-14-21p14-14-23p16-16-23p16-16-23p16-16-23\------| 
|-------------------------------------------------------------------------| 
|-------------------------------------------------------------------------| 
|-------------------------------------------------------------------------| 

____________________________________________________________________________ 


Solo 2 (Robb Flynn) 
Guitar 2 (Rhythm) 
   PM-   PM-   PM-   PM  PM  PM 
||---------------------------------|| 
|o---------------------------------o| 
||---------------------------------|| 
||-----7-----6---------------------|| 
|o-----------------7---6-----------o| 
||-4-4---4-4---4-4---4---4-7-4-5~~-|| 

Guitar 1 (Lead) 
|-------------------16tr19---19BU(21)~~-| 
|----------16tr19-----------------------| 
|-16tr18--------------------------------| 
|---------------------------------------| 
|---------------------------------------| 
|---------------------------------------| 

|-18-19-18-16-18-16----16-------------------------------16-------18-19-21-| 
|-------------------19----19-17-19-17-16-17-16-16-19-21----19-21----------| 
|-------------------------------------------------------------------------| 
|-------------------------------------------------------------------------| 
|-------------------------------------------------------------------------| 
|-------------------------------------------------------------------------| 

|-21BU(23)~~~~~~-21BU(23)~~~~~~-| 
|-------------------------------| 
|-------------------------------| 
|-------------------------------| 
|-------------------------------| 
|-------------------------------| 

|--------------------18-19-18h19BU(21)~~~~-| 
|-----------17-19-21-----------------------| 
|-/16-18-20--------------------------------| 
|------------------------------------------| 
|------------------------------------------| 
|------------------------------------------| 


____________________________________________________________________________ 


Solo 3 (Phil Demmel) 
Guitar 1 (Rhythm) 
   PM-   PM-   PM-   PM  PM  PM 
||---------------------------------|| 
|o---------------------------------o| 
||-----5-----4---------------------|| 
||-----------------5---4-----------|| 
|o-2-2---2-2---2-2---2---2-5-2-3~~-o| 
||---------------------------------|| 

Guitar 2 (Lead) 
|----19----------------------------------------------| 
|----------19----20----17----19----------17----------| 
|-16----16----16----16----16----16-19-16----16-18-16-| 
|----------------------------------------------------| 
|----------------------------------------------------| 
|----------------------------------------------------| 


|-17p15p14h15p14----14----------------17p15p14p0-19PH~~~~\-| 
|----------------17----17p15p14h15h17----------------------| 
|----------------------------------------------------------| 
|----------------------------------------------------------| 
|----------------------------------------------------------| 
|----------------------------------------------------------| 

Guitar 2 
|------19-------------------------------------------------| 
|---19----19-20----19-------19h20-22-20-19----------------| 
|--19-----------21----19-21----------------21-19-18-16\15-| 
|-21------------------------------------------------------| 
|---------------------------------------------------------| 
|---------------------------------------------------------| 
| 
|Guitar 3 
|---------------------------------------------------------| 
|---19-20----19-------------15h17-19-17-15----------------| 
|--19-----21----19-21-18-19----------------18-16-15-------| 
|-21------------------------------------------------17\16-| 
|---------------------------------------------------------| 
|---------------------------------------------------------| 

Guitar 2 
|-------------------18-19-18h19p18----18-19-22BU(24)~~~~~~-| 
|----------17-19-20----------------20----------------------| 
|-16-18-19-------------------------------------------------| 
|----------------------------------------------------------| 
|----------------------------------------------------------| 
|----------------------------------------------------------| 

____________________________________________________________________________ 


After-solo riff 
Both guitars 
  PM----------------------------- 
|---------------------------------| 
|---------------------------------| 
|---------------------------------| 
|-4---2---5---4---2---4-------2---| 
|-2---0---3---2---0---2---5---0---| 
|-------------------------3-------| 

____________________________________________________________________________ 


Repeat Build-up riff 

____________________________________________________________________________ 








Bridge 
Both guitars 
|-------------------------------------------------| 
|-------------------------------------------------| 
|-------------------------8-----------------------| 
|-2-----------------------4-----------------------| 
|-2-----------------------6-----------------------| 
|-0-----------------------------------------------| 

|-------------------------------------------------| 
|-------------------------------------------------| 
|-5-----------------------4-----------------------| 
|-2-----------------------1-----------------------| 
|-3-----------------------2-----------------------| 
|-------------------------------------------------| 

Guitar 1 
|-------------------------------------------------| 
|-------------------------------------------------| 
|-------------------------8-----------------------| 
|-2-----------------------4-----------------------| 
|-2-----------------------6-----------------------| 
|-0-----------------------------------------------| 
| 
|Guitar 2 
|-------0-----------------------0-----------------| 
|-------------------0-----------------------0-----| 
|-------------0-----------------------0-----------| 
|-2-----------------------4-----------------------| 
|-2-----------------------6-----------------------| 
|-0-----------------------------------------------| 

Guitar 1 
|------------------------| 
|------------------------| 
|-5----------------------| 
|-2----------------------| 
|-3----------------------| 
|------------------------| 
| 
|Guitar 2 
|-------0----------------| 
|-------------------0----| 
|-------------0----------| 
|-2----------------------| 
|-3----------------------| 
|------------------------| 

Guitar 1 
   PM--------------------------------------------- 
||-------------------------------------------------|| 
|o-------------------------------------------------o| 
||-------------------------------------------------|| 
||-------------------------------------------------|| 
|o-2-2-2-2-2-2-0-0-0-0-0-0-3-3-3-3-3-3-2-2-2-2-2-2-o| 
||-------------------------------------------------|| 
| 
|Guitar 2 
||-(0)---------------------------------------------|| 
|o-(0)---------------------------------------------o| 
||-(0)---------------------------------------------|| 
||-------------------------------------------------|| 
|o-------------------------------------------------o| 
||-------------------------------------------------|| 

Guitar 1 has strange feedback whilst guitar 2 plays: 

Guitar 2 
|----------------------------------------------------------| 
|----------------------------------------------------------| 
|-9-9---9-----7-7---7-----12-12---12-----10-10-10-10-10-10-| 
|----------------------------------------------------------| 
|-7-7---7---x-5-5---5---x-10-10---10---x--8--8--8--8--8--8-| 
|-----------x-----------x--------------x-------------------| 




____________________________________________________________________________ 


Repeat Chorus 

(On the slowed down Chorus the same riff is played at the same pace) 

____________________________________________________________________________ 


End of Final Chorus 
Guitar 1 
|---------------------------------------------------------| 
|---------------------------------------------------------| 
|-9-9---9---9---11---11---11-12-12---12---12-11---11---11-| 
|---------------------------------------------------------| 
|-7-7---7---7----9----9----9-10-10---10---10--9----9----9-| 
|---------------------------------------------------------| 
| 
|Guitar 2 
|---------------------------------------------------------| 
|-12-12---12---12---10---10---10-8-8---8---8-10---10---10-| 
|---------------------------------------------------------| 
|--9--9----9----9----7----7----7-5-5---5---5--7----7----7-| 
|---------------------------------------------------------| 
|---------------------------------------------------------| 

Guitar 1 
|----------------------------------------------------| 
|----------------------------------------------------| 
|-4-4---4---4-7---7---7---9-9---9---9-11---11---11---| 
|----------------------------------------------------| 
|-2-2---2---2-5---5---5---7-7---7---7--9----9----9---| 
|----------------------------------------------------| 
| 
|Guitar 2 
|--------------------------------------------------------| 
|-12-12---12---12-10---10---10---8-8---8---8-7---7---7---| 
|--------------------------------------------------------| 
|--9--9----9----9--7----7----7---5-5---5---5-4---4---4---| 
|--------------------------------------------------------| 
|--------------------------------------------------------| 

Guitar 1 
|---------------------------------------------------------| 
|---------------------------------------------------------| 
|-9-9---9---9---11---11---11-12-12---12---12-11---11---11-| 
|---------------------------------------------------------| 
|-7-7---7---7----9----9----9-10-10---10---10--9----9----9-| 
|---------------------------------------------------------| 
| 
|Guitar 2 
|---------------------------------------------------------| 
|-12-12---12---12---10---10---10-8-8---8---8-10---10---10-| 
|---------------------------------------------------------| 
|--9--9----9----9----7----7----7-5-5---5---5--7----7----7-| 
|---------------------------------------------------------| 
|---------------------------------------------------------| 

Both guitars 
|-------------------------------------------------| 
|-------------------------------------------------| 
|-5-5-5-5-5-5-5-5-5-5-5-5-5-5-5-5-5-5-5-5-5-5-5-5-| 
|-------------------------------------------------| 
|-3-3-3-3-3-3-3-3-3-3-3-3-3-3-3-3-3-3-3-3-3-3-3-3-| 
|-------------------------------------------------| 

|-------------------------------------------------| 
|-------------------------------------------------| 
|-4-4-4-4-4-4-4-4-4-4-4-4-4-4-4-4-4-4-4-4-4-4-4-4-| 
|-------------------------------------------------| 
|-2-2-2-2-2-2-2-2-2-2-2-2-2-2-2-2-2-2-2-2-2-2-2-2-| 
|-------------------------------------------------| 

|-------------------------------------------------| 
|-------------------------------------------------| 
|-------------------------------------------------| 
|-5-5-5-5-5-5-5-5-5-5-5-5-5-5-5-5-5-5-5-5-5-5-5-5-| 
|-------------------------------------------------| 
|-3-3-3-3-3-3-3-3-3-3-3-3-3-3-3-3-3-3-3-3-3-3-3-3-| 

                                      PM--------- 
|-------------------------------------------------| 
|-------------------------------------------------| 
|-------------------------------------------------| 
|-3-3-3-3-3-3-3-3-3-3-3-3-3-3-3-3-3-3-4-----------| 
|-------------------------------------2---1---5---| 
|-1-1-1-1-1-1-1-1-1-1-1-1-1-1-1-1-1-1-----1---3---| 

____________________________________________________________________________ 


Outro 
Both guitars 
                  PM-----             PM-----     PM-----     PM- 
|-----------------------------------------------------------------| 
|-----------------------------------------------------------------| 
|-----------------------------------------------------------------| 
|-2-----------------------2-------------------2-----------2-------| 
|-1---------------1-1---1-1-----------1-1---1-1---1-1---1-1---1-1-| 
|-0---------------0-0---0-0-----------0-0---0-0---0-0---0-0---0-0-| 

                  PM-----             PM------------------------- 
|-----------------------------------------------------------------| 
|-----------------------------------------------------------------| 
|-----------------------------------------------------------------| 
|-2-----------------------2---------------------------------------| 
|-1---------------1-1---1-1-----------3---2---1---2---3---2---1---| 
|-0---------------0-0---0-0-----------2---1---0---1---2---1---0---| 

____________________________________________________________________________ 


That's all guys please rate :) 
		  

Full key step upFull key step up
Half key step upHalf key step up
Half key step downHalf key step down
Full key step downFull key step down
hide glossary

See also:

tabs Guns N' Roses - Sweet Child o' mine tabs The Offspring - Come Out and Play tabs Guns N' Roses - Live and Let Die tabs Guns N' Roses - November Rain tabs Foo Fighters - Times Like These tabs Simon & Garfunkel - Sounds of silence
e-chords

Other versions:

tabs Machine Head - Eyes Of The Dead
auto scroll beats size up size down change color hide chords drawings
tab show chords e-chords YouTube Clip e-chords hide all tabs e-chords go to top tab

share