Machine Head

Sail Into The Black

Machine Head

tabs

by  JESSGOMES

save to print version add songbook text version e-mail correct tuner
chordsukulelecavacokeyboardtabbassdrumsharmonicaflute Guitar Pro
close

there isn't a video lesson for this song

chords

Sail Into The Black

	  		
Tabbing Legend 
Hammer on:          h 
Pull off:           p 
Slide up:           / 
Slide down:         \ 
Natural Harmonic:   NH 
Pinch Harmonic:     PH 
Bend:               BU(?) 
Whammy Bar Rise:    WBR 
Whammy Bar Lower:   WBL 
Whammy Bar Vibrato: WB~~~ 
Tremelo Pick:       Tr--- 
Tapped note:        T 
Trill:              tr (rapid hammer on?s and pull off?s) 
Muted note:         M 
Palm Mute:          PM--- 
Killswitch:         K (can use bridge selector) 
Quick bend:         ^ 
Pick Slide:         X\\\ 
Whammy Pedal:       + 

____________________________________________________________________________ 


Acoustic verse 1 
Acoustic Guitar 
||-------------------------------------------------| 
|o-------------------------------------------------| 
||-------7-----------7-----------7-----------7-----| 
||-----3---3-------3---3-------3---3-------3---3---| 
|o---5-------5---5-------5---5-------5---5-------5-| 
||-0-----------0-----------0-----------0-----------| 

|-------------------------------------------------|| 
|-------------------------------------------------o| 
|-------6-----------6-----------6-----------6-----|| 
|-----3---3-------3---3-------3---3-------3---3---|| 
|---4-------4---4-------4---4-------4---4-------4-o| 
|-0-----------0-----------0-----------0-----------|| 

____________________________________________________________________________ 







Acoustic verse 2 
Acoustic Guitar 
|-------------------------------------------------| 
|-------------------------------------------------| 
|-----0---0-------0---0-------0---0-------0---0---| 
|-------7-----------7-----------7-----------7-----| 
|---8-------8---8-------8---8-------8---8-------8-| 
|-8-----------8-----------8-----------8-----------| 

|-------------------------------------------------| 
|-------------------------------------------------| 
|-----0---0-------0---0-------0---0-------0---0---| 
|-------7-----------7-----------7-----------7-----| 
|---8-------8---8-------8---8-------8---8-------8-| 
|-5-----------5-----------5-----------5-----------| 

|-------------------------------------------------| 
|-------------------------------------------------| 
|-----0---0-------0---0-------0---0-------0---0---| 
|-------7-----------7-----------7-----------7-----| 
|---8-------8---8-------8---8-------8---8-------8-| 
|-8-----------8-----------8-----------8-----------| 

|-------------------------------------------------| 
|-------------------------------------------------| 
|-----0---0-------0---0-------0-2-0-------0-2-0---| 
|-------7-----------7-------3-------3---3-------3-| 
|---8-------8---8-------8-------------------------| 
|-5-----------5-----------3-----------2-----------| 


____________________________________________________________________________ 


Acoustic Chorus 
Acoustic Guitar 
||---------------------------------------------------| 
|o---------------------------------------------------| 
||---------------------------------------------------| 
||-3-----3-----5-----5-----7-----7-----10----8---7---| 
|o---5-----5-----7-----7-----8-----8---12---10---8---| 
||-----0-----0-----0-----0-----0-----0---------------| 

|-------------------------------------------------|| 
|-------------------------------------------------o| 
|-------0-----------0-----------0-----------0-----|| 
|-------------------------------------------------|| 
|-----------8-----------8-----------8-----------8-o| 
|-8-8-8---8---8-8-8---8---7-7-7---7---7-7-7---7---|| 

|---------------------------------------------------| 
|---------------------------------------------------| 
|---0-----------0-----------0-----------0-----------| 
|-------7---5-------7---5-------7---5-------7---5---| 
|---------------------------------------------------| 
|-5---5---5---5---5---5---5---5---5---5---5---5-----| 

|-------------------------------------------------| 
|-------------------------------------------------| 
|---0-----0-----0-----0-----0-----0-----0-----0---| 
|-7-----7-----7-----7-----7-----7-----7-----7-----| 
|-------------------------------------------------| 
|-----5-----5-----5-----5-----5-----5-----5-----5-| 


____________________________________________________________________________ 


Repeat Acoustic verse 1 

Repeat Acoustic verse 2 

Repeat Acoustic Chorus 

____________________________________________________________________________ 


Bridge 
Both guitars 
|-------------------------|-------------------------| 
|-------------------------|-------------------------| 
|-------------------------|-------------------------| 
|-0---------M-------------|-0---------M-------------| 
|-0---------M-------------|-0---------M-------------| 
|-0---------M-------------|-0---------M-------------| 

|-------------------------|-------------------------| 
|-------------------------|-------------------------| 
|-------------------------|-------------------------| 
|-0---------M-------------|-0---------M-------------| 
|-0---------M-------------|-0---------M-x-x---x---x-| 
|-0---------M-------------|-0---------M-x-x---x---x-| 

Guitar 1 
||-------------------------|-------------------------| 
|o-------------------------|-------------------------| 
||-------------------------|-------------------------| 
||-0---------M-------------|-0---------M-------------| 
|o-0---------M-------------|-0---------M-------------| 
||-0---------M-------------|-0---------M-------------| 
| 
|Guitar 2 
||-------------------------------------------------------------| 
|o-------------------------------------------------------------| 
||-------------------------10-10-10-10-10-10-10-10-10-10-10-10-| 
||-0-----------------------------------------------------------| 
|o-0-----------------------------------------------------------| 
||-0-----------------------------------------------------------| 

Guitar 2 (con?t) 
|--------------------------------------------------| 
|--------------------------------------------------| 
|--------------------------9-9-9-9-9-9-9-9-9-9-9-9-| 
|-0------------------------------------------------| 
|-0------------------------------------------------| 
|-0------------------------------------------------| 

Guitar 1 
|-------------------------|-------------------------|| 
|-------------------------|-------------------------o| 
|-------------------------|-------------------------|| 
|-0---------M-------------|-0---------M-------------|| 
|-0---------M-------------|-0---------M-x-x---x---x-o| 
|-0---------M-------------|-0---------M-x-x---x---x-|| 
| 
|Guitar 2 
|-------------------------------------------------------| 
|-------------------------------------------------------| 
|-------------------------10-10-10-10-10-10-9-9-9-9-9-9-| 
|-0-----------------------------------------------------| 
|-0-----------------------------------------------------| 
|-0-----------------------------------------------------| 

Guitar 2 (con?t) 
|-------------------------------------------------------------------|| 
|-------------------------------------------------------------------o| 
|-12-12-12-12-12-12-10-10-10-10-10-10-9-9-9-9-9-9-10-10-10-10-10-10-|| 
|-------------------------------------------------------------------|| 
|-------------------------------------------------------------------o| 
|-------------------------------------------------------------------|| 

____________________________________________________________________________ 


verse 1 
Both guitars 
||-------------------------------------------------------------| 
|o-------------------------------------------------------------| 
||-------------------------10-10-10-10-10-10-10-10-10-10-10-10-| 
||-0-----------------------------------------------------------| 
|o-0-----------------------------------------------------------| 
||-0-----------------------------------------------------------| 

|--------------------------------------------------| 
|--------------------------------------------------| 
|--------------------------9-9-9-9-9-9-9-9-9-9-9-9-| 
|-0------------------------------------------------| 
|-0------------------------------------------------| 
|-0------------------------------------------------| 

|-------------------------------------------------------| 
|-------------------------------------------------------| 
|-------------------------10-10-10-10-10-10-9-9-9-9-9-9-| 
|-0-----------------------------------------------------| 
|-0-----------------------------------------------------| 
|-0-----------------------------------------------------| 

|-------------------------------------------------------------------|| 
|-------------------------------------------------------------------o| 
|-12-12-12-12-12-12-10-10-10-10-10-10-9-9-9-9-9-9-10-10-10-10-10-10-|| 
|-------------------------------------------------------------------|| 
|-------------------------------------------------------------------o| 
|-------------------------------------------------------------------|| 

Both guitars 
|-------------------------------------------------------------| 
|-------------------------------------------------------------| 
|-------------------------10-10-10-10-10-10-10-10-10-10-10-10-| 
|-8-----------------------------------------------------------| 
|-8-----------------------------------------------------------| 
|-8-----------------------------------------------------------| 

|--------------------------------------------------| 
|--------------------------------------------------| 
|--------------------------9-9-9-9-9-9-9-9-9-9-9-9-| 
|-8------------------------------------------------| 
|-8------------------------------------------------| 
|-8------------------------------------------------| 

|-------------------------------------------------------| 
|-------------------------------------------------------| 
|-------------------------10-10-10-10-10-10-9-9-9-9-9-9-| 
|-8-----------------------------------------------------| 
|-8-----------------------------------------------------| 
|-8-----------------------------------------------------| 

|-------------------------------------------------------------------| 
|-------------------------------------------------------------------| 
|-12-12-12-12-12-12-10-10-10-10-10-10-9-9-9-9-9-9-10-10-10-10-10-10-| 
|-------------------------------------------------------------------| 
|-------------------------------------------------------------------| 
|-------------------------------------------------------------------| 

Both guitars 
|-------------------------------------------------------------| 
|-------------------------------------------------------------| 
|-------------------------10-10-10-10-10-10-10-10-10-10-10-10-| 
|-5-----------------------------------------------------------| 
|-5-----------------------------------------------------------| 
|-5-----------------------------------------------------------| 

|--------------------------------------------------| 
|--------------------------------------------------| 
|--------------------------9-9-9-9-9-9-9-9-9-9-9-9-| 
|-5------------------------------------------------| 
|-5------------------------------------------------| 
|-5------------------------------------------------| 

|-------------------------------------------------------| 
|-------------------------------------------------------| 
|-------------------------10-10-10-10-10-10-9-9-9-9-9-9-| 
|-5-----------------------------------------------------| 
|-5-----------------------------------------------------| 
|-5-----------------------------------------------------| 

|-------------------------------------------------------------------| 
|-------------------------------------------------------------------| 
|-12-12-12-12-12-12-10-10-10-10-10-10-9-9-9-9-9-9-10-10-10-10-10-10-| 
|-------------------------------------------------------------------| 
|-------------------------------------------------------------------| 
|-------------------------------------------------------------------| 

____________________________________________________________________________ 


Chorus 
Both guitars 
||---------------------------------------------------| 
|o---------------------------------------------------| 
||---------------------------------------------------| 
||-3-----3-----5-----5-----7-----7-----10----8---7---| 
|o---5-----5-----7-----7-----8-----8---12---10---8---| 
||-----0-----0-----0-----0-----0-----0---------------| 

|-------------------------------------------------|| 
|-------------------------------------------------o| 
|-------0-----------0-----------0-----------0-----|| 
|-------------------------------------------------|| 
|-----------8-----------8-----------8-----------8-o| 
|-8-8-8---8---8-8-8---8---7-7-7---7---7-7-7---7---|| 

|-------------------------------------------------| 
|-------------------------------------------------| 
|---0-----------0-----------0-----------0---------| 
|-------7---5-------7---5-------7---5-------7---5-| 
|-------------------------------------------------| 
|-5---5---5---5---5---5---5---5---5---5---5---5---| 

|-------------------------------------------------| 
|-------------------------------------------------| 
|---0-----0-----0-----0-----0-----0-----0-----0---| 
|-7-----7-----7-----7-----7-----7-----7-----7-----| 
|-------------------------------------------------| 
|-----5-----5-----5-----5-----5-----5-----5-----5-| 


____________________________________________________________________________ 



verse 1 Variation (Harmony) 
Guitar 1 plays original verse 1 
Guitar 2 
|-------------------------------------------------------------| 
|-------------------------------------------------------------| 
|-------------------------14-14-14-14-14-14-14-14-14-14-14-14-| 
|-0-----------------------------------------------------------| 
|-0-----------------------------------------------------------| 
|-0-----------------------------------------------------------| 

|-------------------------------------------------------------| 
|-------------------------------------------------------------| 
|-------------------------12-12-12-12-12-12-12-12-12-12-12-12-| 
|-0-----------------------------------------------------------| 
|-0-----------------------------------------------------------| 
|-0-----------------------------------------------------------| 

|-------------------------------------------------------------| 
|-------------------------------------------------------------| 
|-------------------------14-14-14-14-14-14-12-12-12-12-12-12-| 
|-0-----------------------------------------------------------| 
|-0-----------------------------------------------------------| 
|-0-----------------------------------------------------------| 

|-------------------------------------------------------------------------|| 
|-------------------------------------------------------------------------o| 
|-15-15-15-15-15-15-14-14-14-14-14-14-12-12-12-12-12-12-14-14-14-14-14-14-|| 
|-------------------------------------------------------------------------|| 
|-------------------------------------------------------------------------o| 
|-------------------------------------------------------------------------|| 

Guitar 2 
|-------------------------------------------------------------| 
|-------------------------------------------------------------| 
|-------------------------14-14-14-14-14-14-14-14-14-14-14-14-| 
|-8-----------------------------------------------------------| 
|-8-----------------------------------------------------------| 
|-8-----------------------------------------------------------| 

|-------------------------------------------------------------| 
|-------------------------------------------------------------| 
|-------------------------12-12-12-12-12-12-12-12-12-12-12-12-| 
|-8-----------------------------------------------------------| 
|-8-----------------------------------------------------------| 
|-8-----------------------------------------------------------| 

|-------------------------------------------------------------| 
|-------------------------------------------------------------| 
|-------------------------14-14-14-14-14-14-12-12-12-12-12-12-| 
|-8-----------------------------------------------------------| 
|-8-----------------------------------------------------------| 
|-8-----------------------------------------------------------| 

|-------------------------------------------------------------------------| 
|-------------------------------------------------------------------------| 
|-15-15-15-15-15-15-14-14-14-14-14-14-12-12-12-12-12-12-14-14-14-14-14-14-| 
|-------------------------------------------------------------------------| 
|-------------------------------------------------------------------------| 
|-------------------------------------------------------------------------| 

Guitar 2 
|-------------------------------------------------------------| 
|-------------------------------------------------------------| 
|-------------------------14-14-14-14-14-14-14-14-14-14-14-14-| 
|-5-----------------------------------------------------------| 
|-5-----------------------------------------------------------| 
|-5-----------------------------------------------------------| 

|-------------------------------------------------------------| 
|-------------------------------------------------------------| 
|-------------------------12-12-12-12-12-12-12-12-12-12-12-12-| 
|-5-----------------------------------------------------------| 
|-5-----------------------------------------------------------| 
|-5-----------------------------------------------------------| 

|-------------------------------------------------------------| 
|-------------------------------------------------------------| 
|-------------------------14-14-14-14-14-14-12-12-12-12-12-12-| 
|-5-----------------------------------------------------------| 
|-5-----------------------------------------------------------| 
|-5-----------------------------------------------------------| 

|-------------------------------------------------------------------------| 
|-------------------------------------------------------------------------| 
|-15-15-15-15-15-15-14-14-14-14-14-14-12-12-12-12-12-12-14-14-14-14-14-14-| 
|-------------------------------------------------------------------------| 
|-------------------------------------------------------------------------| 
|-------------------------------------------------------------------------| 

____________________________________________________________________________ 


Repeat Chorus 


____________________________________________________________________________ 


Solo (Phil Demmel) 
Guitar 1 (Lead) 
|----------------------------|-----------------------------------| 
|-13----------------13---13--|--13---13---13---13---13---13------| 
|-12---BU(14)------(14)-(14)-|-(14)-(14)-(14)-(14)-(14)-(14)(12)-| 
|----------------------------|-----------------------------------| 
|----------------------------|-----------------------------------| 
|----------------------------|-----------------------------------| 
| 
|Guitar 1 
|-------------------------|-------------------------| 
|-------------------------|-------------------------| 
|-------------------------|-------------------------| 
|-0---------M-------------|-0---------M-------------| 
|-0---------M-------------|-0---------M-------------| 
|-0---------M-------------|-0---------M-------------| 

Guitar 2 
|---------------------------------|-----------------------------| 
|---------------------------------|-----------------------------| 
|-10~~~~~~~~~~~~-9-9-9PHBU(10)(9)-|-7PH~~~~~~-5-5-5h7-7-7PH~~~~-| 
|---------------------------------|-----------------------------| 
|---------------------------------|-----------------------------| 
|---------------------------------|-----------------------------| 
| 
|Guitar 1 
|-------------------------|-------------------------| 
|-------------------------|-------------------------| 
|-------------------------|-------------------------| 
|-0---------M-------------|-0---------M-------------| 
|-0---------M-------------|-0---------M-------------| 
|-0---------M-------------|-0---------M-------------| 

Guitar 2 
|------------------------------|-------------------------------------| 
|------------------------------|-------------------------------------| 
|-9\7-7-7/10-10-10\9-9-9/12-12-|-12\10-10-10/14-14-14\12-12-12/15-15-| 
|------------------------------|-------------------------------------| 
|------------------------------|-------------------------------------| 
|------------------------------|-------------------------------------| 
| 
|Guitar 1 
|-------------------------|-------------------------| 
|-------------------------|-------------------------| 
|-------------------------|-------------------------| 
|-0---------M-------------|-0---------M-------------| 
|-0---------M-------------|-0---------M-------------| 
|-0---------M-------------|-0---------M-------------| 

Guitar 2 
|-------------------------------------|-------------------------12----12-15-| 
|-------------------------------------|----------------------13----13-------| 
|-15/17-17-17\14-14-14/19-19-19\14-14-|-14/21-21-21\14-14-14----------------| 
|-------------------------------------|-------------------------------------| 
|-------------------------------------|-------------------------------------| 
|-------------------------------------|-------------------------------------| 
| 
|Guitar 1 
|-------------------------|-------------------------| 
|-------------------------|-------------------------| 
|-------------------------|-------------------------| 
|-0---------M-------------|-0---------M-------------| 
|-0---------M-------------|-0---------M-x-x---x---x-| 
|-0---------M-------------|-0---------M-x-x---x---x-| 

Guitar 2 
|-15BU(17)---(15)-15BU(17)---(15)-|-15BU(17)---(15)-15BU(17)---(15)-| 
|---------------------------------|---------------------------------| 
|---------------------------------|---------------------------------| 
|---------------------------------|---------------------------------| 
|---------------------------------|---------------------------------| 
|---------------------------------|---------------------------------| 
| 
|Guitar 1 
|-------------------------|-------------------------| 
|-------------------------|-------------------------| 
|-------------------------|-------------------------| 
|-8---------M-------------|-8---------M-------------| 
|-8---------M-------------|-8---------M-------------| 
|-8---------M-------------|-8---------M-------------| 

Guitar 2 
|-17---18---17--------17--------|------------------------------------------20-22-| 
|----------------20--------20---|-18---17---18---18h20-------------20-22-23------| 
|-------------------------------|--------------------------19-21-22--------------| 
|-------------------------------|------------------------------------------------| 
|-------------------------------|------------------------------------------------| 
|-------------------------------|------------------------------------------------| 
| 
|Guitar 1 
|-------------------------|-------------------------| 
|-------------------------|-------------------------| 
|-------------------------|-------------------------| 
|-8---------M-------------|-8---------M-------------| 
|-8---------M-------------|-8---------M-------------| 
|-8---------M-------------|-8---------M-------------| 

Guitar 2 
|-22BU(24)~~~~-(25)~~-(22)|-22~~~~~~~~~-22~~~~22-22-| 
|-------------------------|-------------------------| 
|-------------------------|-------------------------| 
|-------------------------|-------------------------| 
|-------------------------|-------------------------| 
|-------------------------|-------------------------| 
| 
|Guitar 1 
|-------------------------|-------------------------| 
|-------------------------|-------------------------| 
|-------------------------|-------------------------| 
|-5---------M-------------|-5---------M-------------| 
|-5---------M-------------|-5---------M-------------| 
|-5---------M-------------|-5---------M-------------| 

Guitar 2 
|-22-20-20-20-22-22-22-17-17-17-20-20-|-20-15-15-15-17-17-17-13-13-13-13-13-| 
|-------------------------------------|-------------------------------------| 
|-------------------------------------|-------------------------------------| 
|-------------------------------------|-------------------------------------| 
|-------------------------------------|-------------------------------------| 
|-------------------------------------|-------------------------------------| 
| 
|Guitar 1 
|-------------------------|-------------------------| 
|-------------------------|-------------------------| 
|-------------------------|-------------------------| 
|-5---------M-------------|-5---------M-------------| 
|-5---------M-------------|-5---------M-x-x---x---x-| 
|-5---------M-------------|-5---------M-x-x---x---x-| 




____________________________________________________________________________ 


Chorus (Solo) 
Guitar 2 
|-12h13p12h13p12h13p12h13p12h13p12h13p12h13p12h13p12h13p12h13p12h13p12h13-| 
|-------------------------------------------------------------------------| 
|-------------------------------------------------------------------------| 
|-------------------------------------------------------------------------| 
|-------------------------------------------------------------------------| 
|-------------------------------------------------------------------------| 

|-------------/12~~~~-13----13/15---13-----12------------| 
|-15PH~~~~~~~~------------------------------------11-----| 
|--------------------------------------------------------| 
|--------------------------------------------------------| 
|--------------------------------------------------------| 
|--------------------------------------------------------| 

|-12h13p12h13p12h13p12h13p12h13p12h13p12h13p12h13p12h13p12h13p12h13p12h13-| 
|-------------------------------------------------------------------------| 
|-------------------------------------------------------------------------| 
|-------------------------------------------------------------------------| 
|-------------------------------------------------------------------------| 
|-------------------------------------------------------------------------| 

|-------------/12~~~~-13~~~~-15BU(17)~~~~~~~~~~~~~~-(15)-| 
|-15PH~~~~~~~~-------------------------------------------| 
|--------------------------------------------------------| 
|--------------------------------------------------------| 
|--------------------------------------------------------| 
|--------------------------------------------------------| 


____________________________________________________________________________ 


Final Chorus 
Guitar 1 
|-------------------------------------------------| 
|-------------------------------------------------| 
|-------------------------------------------------| 
|-------------------------------------------------| 
|-------------------------------------------------| 
|-0-----------2-----------3-----------7-----3-----| 
| 
|Guitar 2 
|-------------------------------------------------| 
|-------------------------------------------------| 
|-------------------------------------------------| 
|-------------------------------------------------| 
|-------------------------------------------------| 
|-3-----------5-----------7----------10-----7-----| 

Guitar 1 
|-------------------------------------------------| 
|-------------------------------------------------| 
|-------------------------------------------------| 
|-------------------------------------------------| 
|-------------------------------------------------| 
|-8-----------------------7-----------------------| 
| 
|Guitar 2 
|-------------------------------------------------| 
|-------------------------------------------------| 
|-------------------------------------------------| 
|-------------------------------------------------| 
|-------------------------------------------------| 
|-12---------------------10-----------------------| 


____________________________________________________________________________ 


Outro 
Both guitars 
|-------------------------------------------------| 
|-------------------------------------------------| 
|---0-----------0-----------0-----------0---------| 
|-------7---5-------7---5-------7---5-------7---5-| 
|-------------------------------------------------| 
|-5---5---5---5---5---5---5---5---5---5---5---5---| 

|-------------------------------------------------| 
|-------------------------------------------------| 
|---0-----0-----0-----0-----0-----0-----0-----0---| 
|-7-----7-----7-----7-----7-----7-----7-----7-----| 
|-------------------------------------------------| 
|-----5-----5-----5-----5-----5-----5-----5-----5-| 

|-------------------------------------------------| 
|-------------------------------------------------| 
|-------------------------------------------------| 
|-------------------------------------------------| 
|-0-----------------------------------------------| 
|-0-----------------------------------------------| 

____________________________________________________________________________ 


That's all guys please rate :) 
		  

See also:

tabs Guns N' Roses - Sweet Child o' mine tabs The Offspring - Come Out and Play tabs Guns N' Roses - Live and Let Die tabs Guns N' Roses - November Rain tabs Foo Fighters - Times Like These tabs Simon & Garfunkel - Sounds of silence
e-chords

Other versions:

tabs Machine Head - Sail Into The Black
auto scroll beats size up size down change color hide chords drawings
tab show chords e-chords YouTube Clip e-chords hide all tabs e-chords go to top tab

share