Machine Head

Beneath The Silt

Machine Head

tabs

by  TAMAMOREIRA

save to print version add songbook text version e-mail correct tuner
chordsukulelecavacokeyboardtabbassdrumsharmonicaflute Guitar Pro
close

there isn't a video lesson for this song

chords

Beneath The Silt

	  		

Intro/Chorus 
Both guitars 
      PM    PM                              PM---- 
|-------------------------------------------------| 
|-------------------------------------------------| 
|-------------------------------------------------| 
|-------------------------------------------------| 
|-------------------------------------------------| 
|-------------------------------------------3-5-6-| 
|-0---0-3p0-0-3~~~~~~~~~\-3h5h6p5p3p0-3h5h6-------| 

      PM    PM      NH    PM--------------------- 
|-------------------------------------------------| 
|-------------------------------------------------| 
|-------------------------------------------------| 
|-------------------------------------------------| 
|-------------------5-----------------------------| 
|-------------------------------------------------| 
|-0---0-3p0-0-3~~~\-------0-0---0---0---0-0-0-0-0-| 

      PM    PM                              PM---- 
|-------------------------------------------------| 
|-------------------------------------------------| 
|-------------------------------------------------| 
|-------------------------------------------------| 
|-------------------------------------------------| 
|-------------------------------------------3-5-6-| 
|-0---0-3p0-0-3~~~~~~~~~\-3h5h6p5p3p0-3h5h6-------| 

      PM    PM            PM---------    PM- 
|-------------------------------------------------| 
|-------------------------------------4-----4-----| 
|-------------------------------------7-----7-----| 
|-------------------------------------------------| 
|-------------------------------------------------| 
|-------------------------------------------------| 
|-0---0-3p0-0-3~~~/12\----0-0---0---0---0-0-------| 

      PM    PM                              PM---- 
|-------------------------------------------------| 
|-------------------------------------------------| 
|-------------------------------------------------| 
|-------------------------------------------------| 
|-------------------------------------------------| 
|-------------------------------------------3-5-6-| 
|-0---0-3p0-0-3~~~~~~~~~\-3h5h6p5p3p0-3h5h6-------| 

      PM    PM      NH    PM--------------------- 
|-------------------------------------------------| 
|-------------------------------------------------| 
|-------------------------------------------------| 
|-------------------------------------------------| 
|-------------------5-----------------------------| 
|-------------------------------------------------| 
|-0---0-3p0-0-3~~~\-------0-0---0---0---0-0-0-0-0-| 

      PM    PM                              PM---- 
|-------------------------------------------------| 
|-------------------------------------------------| 
|-------------------------------------------------| 
|-------------------------------------------------| 
|-------------------------------------------------| 
|-------------------------------------------3-5-6-| 
|-0---0-3p0-0-3~~~~~~~~~\-3h5h6p5p3p0-3h5h6-------| 

      PM    PM            PM--------------------- 
|-------------------------------------------------| 
|-------------------------------------------------| 
|-------------------------------------------------| 
|-------------------------------------------------| 
|-------------------------------------------------| 
|-------------------------------------------------| 
|-0---0-3p0-0-3~~~/12\----0-0---0---0---0-0-0-0-0-| 




 


Pre-verse 
Both guitars 
  PM--------------------------------------------- 
|-------------------------------------------------| 
|-------------------------------------------------| 
|-------------------------------------------------| 
|-------------------------------------------------| 
|-------------------------------------------------| 
|-------------------------------------------------| 
|-0-0---0---0---0-0-0-0-0-0-0---0---0---0-0-0-0-0-| 

  PM 
|-------------------------| 
|-------------------------| 
|-------------------------| 
|-------------------------| 
|-------------------------| 
|-------------------------| 
|-0-3-x-3~~~~~~-1-x-1~~~~-| 
 


verse 1 
Both guitars 
  PM--------------------------------------------- 
|-------------------------------------------------| 
|-------------------------------------------------| 
|-------------------------------------------------| 
|-------------------------------------------------| 
|-------------------------------------------------| 
|-------------------------------------------------| 
|-0-0---0---0---0-0-0-0-0-0-0---0---0---0-0-0-0-0-| 

  PM------------------------ 
|-------------------------------------------------| 
|-------------------------------------------------| 
|-------------------------------------------------| 
|-------------------------------------------------| 
|-------------------------------------------------| 
|-------------------------------------------------| 
|-0-0---0---0---0-0-0-0-0-0-3-x-3~~~~~~-1-x-1~~~~-| 


 


verse 2 
Both guitars 
|-------------------------------------------------| 
|-------------------------------------------------| 
|-------------------------------------------------| 
|-------------------------------------------------| 
|-------------------------------------------------| 
|-------------------------------------------------| 
|-8---8-8-8---8---8-8-8-8-8---8-8-8---3---3-3-3---| 

|-------------------------------------------------| 
|-------------------------------------4-----4-----| 
|-------------------------------------7-----7-----| 
|-------------------------------------------------| 
|-------------------------------------------------| 
|-------------------------------------------------| 
|-5---5-5-5---5---5-5-5-5-1---1-1-1-1---0-0-------| 


 


Chorus 
      PM    PM                              PM---- 
|-------------------------------------------------| 
|-------------------------------------------------| 
|-------------------------------------------------| 
|-------------------------------------------------| 
|-------------------------------------------------| 
|-------------------------------------------3-5-6-| 
|-0---0-3p0-0-3~~~~~~~~~\-3h5h6p5p3p0-3h5h6-------| 

      PM    PM      NH    PM--------------------- 
|-------------------------------------------------| 
|-------------------------------------------------| 
|-------------------------------------------------| 
|-------------------------------------------------| 
|-------------------5-----------------------------| 
|-------------------------------------------------| 
|-0---0-3p0-0-3~~~\-------0-0---0---0---0-0-0-0-0-| 

      PM    PM                              PM---- 
|-------------------------------------------------| 
|-------------------------------------------------| 
|-------------------------------------------------| 
|-------------------------------------------------| 
|-------------------------------------------------| 
|-------------------------------------------3-5-6-| 
|-0---0-3p0-0-3~~~~~~~~~\-3h5h6p5p3p0-3h5h6-------| 

      PM    PM 
|------------------------| 
|------------------------| 
|------------------------| 
|------------------------| 
|------------------------| 
|------------------------| 
|-0---0-3p0-0-3~~~/12\---| 

1st Chorus Ending 
  PM--------------------------------------------- 
|-------------------------------------------------| 
|-------------------------------------------------| 
|-------------------------------------------------| 
|-------------------------------------------------| 
|-------------------------------------------------| 
|-------------------------------------------------| 
|-0-0---0---0---0-0-0-0-0-0-0---0---0---0-0-0-0-0-| 


 


Repeat verse 1 

Repeat verse 2 

Repeat Chorus without 1st Chorus ending 

 


Clean Interlude 

1st time only guitar two plays, second time guitar 2 joins over 

Guitar 1 (Clean) 
|---------------------------------------------------------------| 
|------------------10-------------------------------10----------| 
|-------10------------10----10-----------10------------10----10-| 
|----12---------12-------12-----------10---------10-------10----| 
|-13---------13--------------------12---------12----------------| 
|---------------------------------------------------------------| 
|---------------------------------------------------------------| 
| 
|Guitar 2 
|------------------13-------------------------------13----------| 
|-11-------------------------------10---------------------------| 
|---------------------------------------------------------------| 
|---------------------------------------------------------------| 
|---------------------------------------------------------------| 
|---------------------------------------------------------------| 
|---------------------------------------------------------------| 

Guitar 1 
|------------------------------------------------------------------------| 
|------------------11p10-------------13p10-------------11p10-------------| 
|-------10---------------10----------------10----------------10----------| 
|----12---------12----------12----12----------12----12----------12----12-| 
|-10---------10----------------10----------------10----------------10----| 
|------------------------------------------------------------------------| 
|------------------------------------------------------------------------| 
| 
|Guitar 2 
|-----------------------------------------------------| 
|--------------15-----------13-----------11-----------| 
|-12--------------------------------------------------| 
|-----------------------------------------------------| 
|-----------------------------------------------------| 
|-----------------------------------------------------| 
|-----------------------------------------------------| 

Guitar 1 
|---------------------------------------------------------------| 
|------------------10-------------------------------10----------| 
|-------10------------10----10-----------10------------10----10-| 
|----12---------12-------12-----------10---------10-------10----| 
|-13---------13--------------------12---------12----------------| 
|---------------------------------------------------------------| 
|---------------------------------------------------------------| 
| 
|Guitar 2 
|------------------13-------------------------------13----------| 
|-11-------------------------------10---------------------------| 
|---------------------------------------------------------------| 
|---------------------------------------------------------------| 
|---------------------------------------------------------------| 
|---------------------------------------------------------------| 
|---------------------------------------------------------------| 

Guitar 1 
|------------------------------------------------------13p10-------------| 
|------------------11p10-------------13p10-------------------13p10-------| 
|-------10---------------10----------------10----------------------12p10-| 
|----12---------12----------12----12----------12----12-------------------| 
|-10---------10----------------10----------------10----------------------| 
|------------------------------------------------------------------------| 
|------------------------------------------------------------------------| 
| 
|Guitar 2 
|-----------------------------------------------------| 
|--------------15-----------13-----------11-----------| 
|-12--------------------------------------------------| 
|-----------------------------------------------------| 
|-----------------------------------------------------| 
|-----------------------------------------------------| 
|-----------------------------------------------------| 

 


Breakdown 
Both guitars                           ?Beneanth the...? 
||-------------------------------------------------| 
|o-------------------------------------------------| 
||-------------------------------------------------| 
||-------------------------------------------------| 
||-------------------------------------------------| 
|o-------------------------------------------------| 
||-0-----------------0-----------3-3-3-3\1-1-1/3-3-| 

 ?Silt? 
|-------------------------------------------------|| 
|-------------------------------------------------o| 
|-------------------------------------------------|| 
|-------------------------------------------------|| 
|-------------------------------------------------|| 
|-------------------------------------------------o| 
|-0-----------------0-----------3-3-3-3/6-6-6\5-5-|| 

 


Solo 1 (Robb Flynn) 
Guitar 1 (Lead) 

Build up before solo w/ strange effects 
  Tr----------------- 
|--------------------| 
|-Harmonic Slide-----| 
|-2///////12\\\\\\\2-| 
|--------------------| 
|--------------------| 
|--------------------| 
|--------------------| 





Solo start 

Guitar 2 plays Breakdown for Rhythm 

Guitar 1 (Lead) 
|--------------------------------------------------| 
|-20--------(20)~~~~~~~~~~~~~~~~~~~~~~~~~~~-17tr20-| 
|-19---BU---(21)~~~~~~~~~~~~~~~~~~~~~~~~~~~--------| 
|--------------------------------------------------| 
|--------------------------------------------------| 
|--------------------------------------------------| 
|--------------------------------------------------| 

|-------------------------------------------17tr20-| 
|-20-BU-(22)~~-17h20p17-20BU(22)~~~~~~~~~~~--------| 
|--------------------------------------------------| 
|--------------------------------------------------| 
|--------------------------------------------------| 
|--------------------------------------------------| 
|--------------------------------------------------| 

|-20---BU---(22)~~~~-17h20BU(22)~~~~~~~~~~~-17h20/-| 
|--------------------------------------------------| 
|--------------------------------------------------| 
|--------------------------------------------------| 
|--------------------------------------------------| 
|--------------------------------------------------| 
|--------------------------------------------------| 

  Tr---------- 
|-23-----------22-23-22-23-20-22-20-22-17tr20----------------------------| 
|-----------------------------------------------17tr20-------------------| 
|--------------------------------------------------------19p17-19BU(23)\-| 
|------------------------------------------------------------------------| 
|------------------------------------------------------------------------| 
|------------------------------------------------------------------------| 
|------------------------------------------------------------------------| 

 


Solo 2 (Phil Demmel) 

Guitar 1 plays Breakdown for Rhythm 

Guitar 2 (Lead) 
|--------------------------------------------------------------| 
|--------------------------------------------------------------| 
|-7BU(9)(7)(9)(7)(9)~~~~-9BU(12)~~~~~~~~~~~~~~~~----7-9-10p9p7-| 
|------------------------------------------------10------------| 
|--------------------------------------------------------------| 
|--------------------------------------------------------------| 
|--------------------------------------------------------------| 

|---------------------------------------------------------12-------| 
|------------------------------------------------12-13-15----13p12-| 
|-12BU(14)(12)(14)(12)(14)~~~~-14BU(17)~~~~~~~~~-------------------| 
|------------------------------------------------------------------| 
|------------------------------------------------------------------| 
|------------------------------------------------------------------| 
|------------------------------------------------------------------| 

|----------15p12----12----------12-15-12----12----------12-15-12----12----| 
|-12-13-15-------13----13-12-13----------13----13-12-13----------13----13-| 
|-------------------------------------------------------------------------| 
|-------------------------------------------------------------------------| 
|-------------------------------------------------------------------------| 
|-------------------------------------------------------------------------| 
|-------------------------------------------------------------------------| 

|-12tr15----------------/17tr20------------------------------------17-| 
|---------------------------------17tr20------------------17-18-20----| 
|------------------------------------------17tr19---17-19-------------| 
|---------------------------------------------------------------------| 
|---------------------------------------------------------------------| 
|---------------------------------------------------------------------| 
|---------------------------------------------------------------------| 

 


verse 2 Variation w/ solo 
Guitar 1 
|-------------------------------------------------| 
|-------------------------------------------------| 
|-------------------------------------------------| 
|-------------------------------------------------| 
|-------------------------------------------------| 
|-------------------------------------------------| 
|-8---8-8-8---8---8-8-8-8-8---8-8-8---3---3-3-3---| 
| 
|Guitar 2 
|-19^20^19-17----17-------------------19^20^19-17----17-------------------| 
|-------------20----20-17-------------------------20----20-17-------------| 
|-------------------------19-17-19-17-------------------------19-17-19-17-| 
|-------------------------------------------------------------------------| 
|-------------------------------------------------------------------------| 
|-------------------------------------------------------------------------| 
|-------------------------------------------------------------------------| 

Guitar 1 
|-------------------------------------------------| 
|-------------------------------------------------| 
|-------------------------------------------------| 
|-------------------------------------------------| 
|-------------------------------------------------| 
|-------------------------------------------------| 
|-5---5-5-5---5---5-5-5-5-5---5-5-5-5-7---7-7-7-7-| 
| 
|Guitar 2 
|-19^20^19-17----17-------------------19^20^19-17----17-------------------| 
|-------------20----20-17-------------------------20----20-17-------------| 
|-------------------------19-17-19-17-------------------------19-17-19-17-| 
|-------------------------------------------------------------------------| 
|-------------------------------------------------------------------------| 
|-------------------------------------------------------------------------| 
|-------------------------------------------------------------------------| 

Guitar 1 
|-------------------------------------------------| 
|-------------------------------------------------| 
|-------------------------------------------------| 
|-------------------------------------------------| 
|-------------------------------------------------| 
|-------------------------------------------------| 
|-8---8-8-8---8---8-8-8-8-8---8-8-8---3---3-3-3---| 
| 
|Guitar 2 
|-19^20^19-17----17-------------------19^20^19-17----17-------------------| 
|-------------20----20-17-------------------------20----20-17-------------| 
|-------------------------19-17-19-17-------------------------19-17-19-17-| 
|-------------------------------------------------------------------------| 
|-------------------------------------------------------------------------| 
|-------------------------------------------------------------------------| 
|-------------------------------------------------------------------------| 

Guitar 1 
|-------------------------------------------------| 
|-------------------------------------4-----4-----| 
|-------------------------------------7-----7-----| 
|-------------------------------------------------| 
|-------------------------------------------------| 
|-------------------------------------------------| 
|-5---5-5-5---5---5-5-5-5-1---1-1-1-1---0-0-------| 
| 
|Guitar 2 
|-19^20^19-17----17----------------------------19-20-22BU(24)~~~~~~~~~~-| 
|-------------20----20-17-------------18-20-22--------------------------| 
|-------------------------19-17-19-21-----------------------------------| 
|-----------------------------------------------------------------------| 
|-----------------------------------------------------------------------| 
|-----------------------------------------------------------------------| 
|-----------------------------------------------------------------------| 



 


Repeat Intro/Chorus 

 


Outro 
Both guitars 
  PM--------------------------------------------- 
|-------------------------------------------------| 
|-------------------------------------------------| 
|-------------------------------------------------| 
|-------------------------------------------------| 
|-------------------------------------------------| 
|-------------------------------------------------| 
|-0-0---0---0---0-0-0-0-0-0-0---0---0---0-0-0-0-0-| 

|-----| 
|-----| 
|-----| 
|-----| 
|-----| 
|-----| 
|-0-M-| 

 

That's all guys please rate :) 
		  

See also:

tabs Guns N' Roses - Sweet Child o' mine tabs The Offspring - Come Out and Play tabs Guns N' Roses - Live and Let Die tabs Guns N' Roses - November Rain tabs Foo Fighters - Times Like These tabs Simon & Garfunkel - Sounds of silence
e-chords

Other versions:

tabs Machine Head - Beneath The Silt
auto scroll beats size up size down change color hide chords drawings
tab show chords e-chords YouTube Clip e-chords hide all tabs e-chords go to top tab

share