Machine Head

Blood for Blood

Machine Head

tabs Expert expert

save to print version add songbook text version e-mail correct tuner
chordsukulelecavacokeyboardtabbassdrumsharmonicaflute Guitar Pro
close

there isn't a video lesson for this song

chords

Blood for Blood

	  		Obs.:  
Na hora do solo a base continua 
esta na sequencia,  so ouvir o som e acompanhar, 
blza!! essa  porrada das boas! qualquer duvida 
 
 
 
                                                                 
D||--------------------|--5b---------------|-------------------| 
A||--------------------|-------------------|-------------------| 
F||*-------------------|-------------------|-------------------| 
C||*--2/---------------|-------------------|--2/---------------| 
G||---2/---------------|-------------------|--2/---------------| 
D||---0/---------------|-------------------|--0/---------------| 
 
 
                                                                                 
--9b---------------|-------------------|--5b---------------|-------------------| 
-------------------|-------------------|-------------------|-------------------| 
-------------------|-------------------|-------------------|-------------------| 
-------------------|--2/---------------|-------------------|--2/---------------| 
-------------------|--2/---------------|-------------------|--2/---------------| 
-------------------|--0/---------------|-------------------|--0/---------------| 
 
 
                                                  3x 
--5b----------------||----------------------------|| 
--------------------||----------------------------|| 
-------------------*||*--------------------------*|| 
-------------------*||*--------------------------*|| 
--------------------||-----------7----7----7--7---|| 
--------------------||---0-0-0-0-5--0-5--0-5--5---|| 
 
 
                                                                       
-----------------------------------|---------------------------------| 
-----------------------------------|---------------------------------| 
*------------------------------3-0-|---------------------------------| 
*--2-0---------3-2-----5-3---------|--2-0---------3-2----------------| 
-----------------------------------|----------------------------5--5-| 
-------0-0-0-0-----0-0-----0-0-----|------0-0-0-0-----0-0-0-0-0-3--3-| 
 
 
                                                                           
----------------------------------|-------------------------------------|| 
----------------------------------|-------------------------------------|| 
------------------------------3-0-|------------------------------------*|| 
--2-0---------3-2-----5-3---------|--2-0---------3-2-------------------*|| 
----------------------------------|------------------5-5-5-5--5-5--5-5--|| 
------0-0-0-0-----0-0-----0-0-----|------0-0-0-0-----3-3-3-3--3-3--3-3--|| 
 
 
                                                                
----------------------------------|---------------------------| 
----------------------------------|---------------------------| 
*---------------------------------|---------------------------| 
*---------------------------------|---------------------------| 
---5----------2--5----------2--5--|----------2--5--8-8-8-8-8--| 
---3--0-0-0-0-0--3--0-0-0-0-0--3--|--0-0-0-0-0--3--6-6-6-6-6--| 
 
 
                                                                      
---------------------------------|---------------------------------|| 
---------------------------------|---------------------------------|| 
---------------------------------|--------------------------------*|| 
---------------------------------|--------------------------------*|| 
--5----------2--5----------2--5--|----------2--5--10-10-10-10-10---|| 
--3--0-0-0-0-0--3--0-0-0-0-0--3--|--0-0-0-0-0--3--8--8--8--8--8----|| 
 
 
                          2x                           
--------------------------||-------------------------| 
--------------------------||-------------------------| 
*--9---------------------*||-------------------------| 
*------------------------*||-------------------------| 
---7--------2--8----3-----||--5----------3---3---3---| 
------------0--6----1-----||--3----------1---1---1---| 
 
 
                                                               
----------------------------------|--------------------------| 
----------------------------------|--------------------------| 
------------------------------3-0-|--------------------------| 
--2-0---------3-2-----5-3---------|--2-0---------3-2---------| 
----------------------------------|--------------------------| 
------0-0-0-0-----0-0-----0-0-----|------0-0-0-0-------------| 
 
 
                                                                 
|----------------------------------|---------------------------| 
|----------------------------------|---------------------------| 
|*---------------------------------|---------------------------| 
|*---------------------------------|---------------------------| 
|---5----------2--5----------2--5--|----------2--5--8-8-8-8-8--| 
|---3--0-0-0-0-0--3--0-0-0-0-0--3--|--0-0-0-0-0--3--6-6-6-6-6--| 
 
 
                                                                      
---------------------------------||---------------------------------| 
---------------------------------||---------------------------------| 
---------------------------------||*--------------------------------| 
---------------------------------||*--------------------------------| 
--5----------2--5----------2--5--||-----------2--5--10-10-10-10-10--| 
--3--0-0-0-0-0--3--0-0-0-0-0--3--||---0-0-0-0-0--3--8--8--8--8--8---| 
 
 
                           2x                                                    
|--------------------------||------------------------------|-------------------| 
|--------------------------||------------------------------|-------------------| 
|*--9---------------------*||------------------------------|-------------------| 
|*------------------------*||------------------------------|--2----------------| 
|---7--------2--8----3-----||--5---5---5---3---3---3---3---|--2----------------| 
|------------0--6----1-----||--3---3---3---1---1---1---1---|--0----------------| 
 
 
                                                       
------------------||--------------------------------|| 
------------------||--------------------------------|| 
------------------||*------------------------------*|| 
------------------||*------------------------------*|| 
------------------||---2---2---2---2---2---2---2----|| 
------------------||---0---0---0---0---0---0---0----|| 
 
 
                                                          
---------------------------|----------------------------| 
---------------------------|----------------------------| 
*--------------------------|----------------------------| 
*---------------------3----|--3--3--3--3--3--3--3-------| 
---2----2----3--5--3--1----|--1--1--1--1--1--1--1--2----| 
---0----0----1--3--1-------|-----------------------0----| 
 
 
                                              3x                  3x 
-----------------------------|----------------||------------------|| 
-----------------------------|----------------||------------------|| 
----------------5--7--7--10--|--10--7--7--9--*||*----------------*|| 
----------------3------------|---------------*||*----------------*|| 
--2----3--5--1-----5--5--8---|--8---5--5--7---||------------------|| 
--0----1--3--1---------------|----------------||------------------|| 
 
 
                                            
--------------------|---------------------| 
-----------5b-------|----5----------------| 
----3--3t3----------|--3---5--4--3--------| 
--------------------|---------------------| 
--------------------|---------------------| 
--------------------|---------------------| 
 
 
                                                                       
------------------------------12----------|--------------------------| 
--15-13-12-15-13-12--12-13-12----15-17-15-|--11b-11----11b-11r---11b-| 
------------------------------------------|--------------------------| 
------------------------------------------|--------------------------| 
------------------------------------------|--------------------------| 
------------------------------------------|--------------------------| 
 
 
                                              
-----------13h15-------13h15-------17h19-19-| 
--11/15-15-------17h15-------17h15----------| 
--------------------------------------------| 
--------------------------------------------| 
--------------------------------------------| 
--------------------------------------------| 
 
 
                                              
--19-19-19-17-17-19-17-19-17-15-17-15-14-15-| 
--------------------------------------------| 
--------------------------------------------| 
--------------------------------------------| 
--------------------------------------------| 
--------------------------------------------| 
 
 
                                              
--14----14----------------------------------| 
-----17----17-15-15-15-14-------------------| 
--------------------------16-16-16-19-14-16-| 
--------------------------------------------| 
--------------------------------------------| 
--------------------------------------------| 
 
 
                                                                                 
------------------------------------|--14h15h17h14h18h17h15h14-----------------| 
--14h15h14h15h14----14--------------|--------------------------17b----------17-| 
-----------------16----16h14----16--|------------------------------17-18-19----| 
------------------------------------|------------------------------------------| 
------------------------------------|------------------------------------------| 
------------------------------------|------------------------------------------| 
 
 
                                                                               
-----------------------------17-------|-----------19-21----------------19-22-| 
--19--17--------17-19--19-20----19-18-|--19-21-22-------19----19-20-22-------| 
----------18-19-----------------------|--------------------------------------| 
--------------------------------------|--------------------------------------| 
--------------------------------------|--------------------------------------| 
--------------------------------------|--------------------------------------| 
 
 
                                                       3x 
--22-24b-------------||--------------------------------|| 
---------------------||--------------------------------|| 
---------------------||*------------------------------*|| 
---------------------||*------------------------------*|| 
---------------------||--------------------------------|| 
-------------------6-||---0-0-0-0-0-6-0-6-0-6-6-0-0-0--|| 
 
 
                                                                
---------------------------|----------------------------------| 
---------------------------|----------------------------------| 
---------------------------|------------------------------3-0-| 
--5------------------------|--2-0---------3-2-----5-3---------| 
--5--------3---3---3---3---|----------------------------------| 
--3--------1---1---1---1---|------0-0-0-0-----0-0-----0-0-----| 
 
 
                                                                      
---------------------------------|----------------------------------| 
---------------------------------|----------------------------------| 
---------------------------------|------------------------------3-0-| 
--2-0---------3-2----------------|--2-0---------3-2-----5-3---------| 
----------------------------5--5-|----------------------------------| 
------0-0-0-0-----0-0-0-0-0-3--3-|------0-0-0-0-----0-0-----0-0-----| 
 
 
                                       
------------------------------------|| 
------------------------------------|| 
------------------------------------|| 
--2-0---------3-2-------------------|| 
------------------5-5-5-5--5-5--5-5-|| 
------0-0-0-0-----3-3-3-3--3-3--3-3-|| 

		  

See also:

tabs Guns N' Roses - Sweet Child o' mine tabs The Offspring - Come Out and Play tabs Guns N' Roses - Live and Let Die tabs Guns N' Roses - November Rain tabs Foo Fighters - Times Like These tabs Simon & Garfunkel - Sounds of silence
e-chords

Other versions:

tabs Machine Head - Blood for Blood
auto scroll beats size up size down change color hide chords drawings
tab show chords e-chords YouTube Clip e-chords hide all tabs e-chords go to top tab

share