Ludovico Einaudi

Una Mattina

Ludovico Einaudi

tabs

by  CARLLUZ

save to print version add songbook text version e-mail correct tuner
chordsukulelecavacokeyboardtabbassdrumsharmonicaflute Guitar Pro
close

there isn't a video lesson for this song

chords

Una Mattina

	  		
D|-------7--------9-------7----------------5h9-- 
A|-----7--------7------7---------------7---------- 
E|---5--------5------5-------5h7h8------------ 
 
 
D|------7--------7---------7------- 
A|----7-------7---------7---7---- 
E|--1-------5--------1------------ 

 
D|------7--------7--------7--------------------5h9-- 
A|----7-------7--------7-------------------7--------- 
E|--3------7--------3---------------7h8------------ 
 
 
D|-------7--------9-------7----------------5h9-- 
A|-----7--------7------7---------------7---------- 
E|---5--------5------5-------5h7h8------------ 

 
D|------7--------7--------7------------7------------5h9-- 
A|----7-------7--------7----7------7----7--------7------- 
E|--1------5--------1-----------10--------7h8------------ 

 
D|-------7----------------------5h9-- 
A|-----7--------------------7---------- 
E|---5-----------5h7h8------------- 


Depois disso comeša a base F G A e a sequencia a seguir 

 
D|----------------5h9-7---9-7-9-7-9-10-7--- 
A|-------------7-------------------------------- 
E|--5h7h8------------------------------------ 
 
 
D|---9-7-9-7-9-7---------9-9-9-10-9-10-7--- 
A|-------------------------------------------------------- 
E|-------------------------------------------------------- 
 
		  

Full key step upFull key step up
Half key step upHalf key step up
Half key step downHalf key step down
Full key step downFull key step down
hide glossary

See also:

tabs Ludovico Einaudi - Fly tabs Ludovico Einaudi - Divenire tabs Ludovico Einaudi - Experience tabs Ludovico Einaudi - Una Mattina tabs Antonio Vivaldi - Linverno Winter 2nd Movement tabs Vivaldi - Inverno - Largo
e-chords

Other versions:

tabs Ludovico Einaudi - Una Mattina
auto scroll beats size up size down change color hide chords drawings
tab show chords e-chords YouTube Clip e-chords hide all tabs e-chords go to top tab

share