Ludovico Einaudi

Divenire

Ludovico Einaudi

tabs Intermediate intermediate

by  SABRJOAO

save to print version add songbook text version e-mail correct tuner
chordsukulelecavacokeyboardtabbassdrumsharmonicaflute Guitar Pro
close

there isn't a video lesson for this song

chords

Divenire

	  		

Intro Part 1 

e|-5-----------------8-----------------7-----------------------------------| 
B|-------------------------------------------------------8-----------------| 
G|---0-0-0-0-0-0-0-0---0-0-0-0-0-0-0-0---0-0-0-0-0-0-0-0---0-0-0-0-0-0-0-0-| 
D|--7-7-7-7-7-7-7-7---7-7-7-7-7-7-7-7---0-0-0-0-0-0-0-0---7-7-7-7-7-7-7-7--| 
A|-0-----------------8-----------------------------------7-----------------| 
E|-------------------------------------3-----------------------------------| 

e|-5-----------------8-----------------7---------------------------------| 
B|-----------------------------------------------------------------------| 
G|---0-0-0-0-0-0-0-0---0-0-0-0-0-0-0-0---0-0-0-0-0-0-0-0-0-0-0-0-0-0-0-0-| 
D|--7-7-7-7-7-7-7-7---7-7-7-7-7-7-7-7---0-0-0-0-0-0-0-0-0-0-0-0-0-0-0-0--| X2 Part 1 
A|-0-----------------8---------------------------------------------------| 
E|-------------------------------------3---------------------------------| 

Intro Part 2 

e|-8-------------------------12-------------------------10------------------7------------------| 
B|---------------------------------------------------------------------------------------------| 
G|----0--0--0--0--0--0--0--0-----0--0--0--0--0--0--0--0-----0-0-0-0-0-0-0-0----0-0-0-0-0-0-0-0-|   
D|--10-10-10-10-10-10-10-10----10-10-10-10-10-10-10-10-----9-9-9-9-9-9-9-9----9-9-9-9-9-9-9-9--| 
A|-0-------------------------8--------------------------7-------------------0------------------| 
E|---------------------------------------------------------------------------------------------| 

e|-8-------------------------12-------------------------10-------------------------------------| 
B|---------------------------------------------------------------------------------------------| 
G|----0--0--0--0--0--0--0--0-----0--0--0--0--0--0--0--0----0-0-0-0-0-0-0-0-0-0-0-0-0-0-0-0-----|   
D|--10-10-10-10-10-10-10-10----10-10-10-10-10-10-10-10----9-9-9-9-9-9-9-9-9-9-9-9-9-9-9-9------| X2 Part 2 
A|-0-------------------------8--------------------------7--------------------------------------| 
E|---------------------------------------------------------------------------------------------| 

Intro Part 3 

e|-5----5---8-----5----5---8-----7----7---10------------| 
B|------------------------------------------------------| 
G|---0----0---0-0---0----0---0-0---0----0---0-0-0-0-0-0-| 
D|--7-7--7---7-7---7-7--7---7-7---9-9--9---9-9-9-9-9-9--| X2 
A|-0----0---0-----8----8---8-----0----0---0-------------| 
E|------------------------------------------------------| 

e|-8-------8-----12--------8-------8-----12-------7-----7----10------------| 
B|-------------------------------------------------------------------------| 
G|----0-------0------0--0-----0-------0-----0--0----0-----0----0-0-0-0-0-0-| 
D|--10-10---10-----10-10----10-10---10----10-10----9-9---9----9-9-7-7-7-7--| X2 
A|-0-------0-----0---------0-------0-----0--------0-----0----0-------------| 
E|-------------------------------------------------------------------------| 

Chorus Part 1 (I called it Chorus because it repeats now and in the end... also for better reference (: ) 

e|-------------------2----------------------------------| 
B|-1-----1-----0-----3-----1-----1-----0-----3--5p3-----| 
G|-2-----0-----0-----2-----2-----0-----0-----4------5p4-| 
D|-2-----2-----0-----0-----2--2--2--2--0--0--0-0--------| 
A|-------3-----2-----------------3-----2-----5----------| 
E|-------------3-----------------------3----------------| 

e|-------------------------------------------------------------------------------| 
B|----1---1----3----0----1----3----5---------1---1----3----0----1----3---5p3-----| 
G|---2-2----0----0----0----0----4----4------2-2----0----0----0----0----4-----5p4-| 
D|--2---2----2----2----0----0----0----0----2---2----2----2----0----0-------------|X3 
A|-0------3----3--------------5----5------0------3----3--------------5-----------| 
E|------------------3----3---------------------------------3----3----------------| 

Chorus Part 2 

e|-0----0----0----1-0-------------------------------------------------------------| 
B|---1----1-----------3-1--3----3----3----5--------1---1----3-1--------0------3---| 
G|----2----2-----------------0----0----4----4-----2-2-----------4-2---0-0----4-4--| 
D|----------------------------0----0----0----0---2---2---------------0---0--0---0-| 
A|-0----0----3----------------------------------0------3--------------------------| 
E|-------------------------3----3----0----0-------------------------3------0------| 

Chorus Part 3 

e|----------------5-----------------0----1-0-----------------0------1-0----------------------| 
B|-5----5----5------8-6-5-3----3-------------3-1--1----1-------1--------3--3----3-------0----| 
G|---5----5-----------------0----0------------------2----2------2------------0----0----0-0---| 
D|----7----7-----------------0----0------------------2----2--3----------------0----0--2---2--| 
A|------------------------------------------------0----0-------------------------------------| 
E|-5----5----5------------3----3----3--------------------------------------3----3----0-------| 

e|-------------------------------------------------------------------------------| 
B|----1---1----3----0----1----3----5---------1---1----3----0----1----3---5p3-----| 
G|---2-2----0----0----0----0----4----4------2-2----0----0----0----0----4-----5p4-| 
D|--2---2----2----2----0----0----0----0----2---2----2----2----0----0-------------|  
A|-0------3----3--------------5----5------0------3----3--------------5-----------| 
E|------------------3----3---------------------------------3----3----------------| 

Chorus Part 4 

e|-5----7-----8-----10-----7----8-----10----12-----5----7----8-----10-----7----8----10------12p10------| 
B|---------------------------0----0------0-----0----------------------------0----0-----0----------13p12| 
G|---5----5-----9------9------0----0------0-----0----5----5----9------9------0----0--------------------| 
D|----7----7-----10-----10----------------------------7----7----10-----10------------------------------| X2 
A|-----------------------------------------------------------------------------------------------------| 
E|-5----5-----8-----8------0----0-----0-----0------5----5----8------8-----0----0----0-------0----------| 

Transition 

e|--------0---------0------------------------3--------3-------------| 
B|----0-1h------0-1h-----0-3h0p-3--------0-1h-----0-1h-----0-3h0p-3-| 
G|---2---------2--------0-------0-------2--------2--------0-------0-| 
D|--2---------0--------0--------2------2--------0--------0--------2-| X2 
A|-0----------------------------2-----0---------------------------2-| 
E|----------1---------3------------------------1--------3-----------| 

Middle Slow Section Part 1 

e|---------------------------------------------------------------------------------------------------------| 
B|-1---1---1-0-1--1---1---1-h3p1-0-1--0----0-----------0--1---1---1-h3p1-0-1--1---1---1-h3p1-0-1--3----3---| 
G|---------------------------------------0-----------2-----------------------------------------------0-----| 
D|---2---2----------2---2---------------0-------------------2---2---------------2---2---------------0------|  
A|-0---0---0------3---3-----------------------------------0---0---------------3---3------------------------| 
E|------------------------------------3----3------------------------------------------------------3----3---| 

e|-----0---0----0-h1p0--0-------0-h1p0--0------------------------------------------------------------------| 
B|-1-3----------------3---------------3-------3--------0--1---1---1-h3p1-0-1--1---1---1-h3p1-0-1--3----3---| 
G|-------2---2---------------2--------------0--------2-----------------------------------------------0-----| 
D|-----------------------------------------0----------------2---2---------------2---2---------------0------|  
A|-----0---0---------------3------------------------------0---0---------------3---3------------------------| 
E|------------------------1--1------------3---3---------------------------------------------------3----3---| 

Middle Slow Section Part 2 

e|-0-------0-------0-------0--------0-----0----------------------------------------------------------------| 
B|--3p1-1---3p1-1---3p1-1---3p1-1--3-3p1----3----------0--1---1---1-h3p1-0-1--1---1---1-h3p1-0-1--3----3---| 
G|-------------------------------------------0-------2-----------------------------------------------0-----| 
D|--------------------------------------------0-------------2---2---------------2---2---------------0------|  
A|------0-------0-------3-------3-------------------------0---0---------------3---3------------------------| 
E|----------------------------------------3-------------------------------------------------------3----3---| 

e|-0-------0-------0-------0--------0-----0----------------------------------------------------------------| 
B|3-3p1-1-3-3p1-1-3-3p1-1-3-3p1-1--3-3p1----3----------0--1---1---1-h3p1-0-1--1---1---1-h3p1-0-1--3----3---| 
G|-------------------------------------------0-------2-----------------------------------------------0-----| 
D|--------------------------------------------0-------------2---2---------------2---2---------------0------|  
A|------0-------0-------3-------3-------------------------0---0---------------3---3------------------------| 
E|----------------------------------------3-------------------------------------------------------3----3---| 

Middle Slow Section Part 3 

e|---5---5---5------------------------0------------5---5---5---------------------1--0-----------------| 
B|-------------8--3---3---3-h5p3---3----1--------------------8--3---3---3-h5p3--------1---------------| 
G|-------------------------------5-------2-------------------------------------5--------2-------------| 
D|-----7---7--------0---0----------------------------7---7--------0---0-------------------------------| 
A|---8---8----------------------------0---0--------8---8----------------------------0----0------------| 
E|-5--------------3---3--------------------------5--------------3---3---------------------------------| 

e|---5---5---8-7--------7-------3p0------------------| 
B|------------------------10-8-----1------1-------1--| 
G|--------------------7-------------2-----------2----| 
D|-----7---7--------9----------------2--2-----0------| 
A|---8---8-------10-------------------0--------------| 
E|-5----------------------------------------2-----2--| 

Middle Slow Section Part 4 

e|---------------------------------------------------0------------------------------------------------------| 
B|---0--1---1----0-h1p0--0-----0-------3-1-0-------1---1-------1-------0--1---1----0-h1p0--0-----0----3-1-0-| 
G|-2-------------------------0-------------------2-----------2-------2-------------------------0------------| 
D|--------3---3------------0-------------------2-----------0----------------3---3------------0--------------| 
A|-------------------------------------------0--------------------------------------------------------------| 
E|------1---1------------3-----3-------------------------2-----2----------1---1------------3-----3----------| 

Repeat  
Chorus Part 1 
Chorus Part 2 
Chorus Part 3 
Chorus Part 4 

Chorus Part 5 (Just for the end Chorus) 

e|-5-----8-----7-----10---| 
B|------------------------| 
G|------------------------| 
D|------------------------| 
A|------------------------|  X2 
E|-5-----8-----0-----0----| 

e|-5--7--8--10--7--8--10--12--5--7--8--10--7--8--10--12p10-----| 
B|--------------------------------------------------------13p12| 
G|-------------------------------------------------------------| 
D|-------------------------------------------------------------| 
A|-------------------------------------------------------------|  
E|-5-----8------0-----0-------5-----8------0-----0-------------| 

Repeat Chorus Part 4 to end. 




************************************ 

| /   slide up 
| \   slide down 
| h   hammer-on 
| p   pull-off 
| ~   vibrato 
| +   harmonic 
| x   Mute note 
| b   Bend 
| pb  Pre-bend 
| br  Bend release 
| pbr Pre-bend release 
| brb Bend release bend 

************************************ 
		  

See also:

tabs Ludovico Einaudi - Fly tabs Ludovico Einaudi - Divenire tabs Ludovico Einaudi - Experience tabs Ludovico Einaudi - Una Mattina tabs Antonio Vivaldi - Linverno Winter 2nd Movement tabs Vivaldi - Inverno - Largo
e-chords

Other versions:

tabs Ludovico Einaudi - Divenire
auto scroll beats size up size down change color hide chords drawings
tab show chords e-chords YouTube Clip e-chords hide all tabs e-chords go to top tab

share