Love And Death

home > Love And Death

Watching The Bottom Fall Tab

Love And Death

Difficulty: nolevelnolevel

by terr%5Fschmitz

tuner correct add songbook print version text version save to e-mail
chordsukulelecavacokeyboardtabbassdrumsharmonicsflute Guitar Pro
chords

Watching The Bottom Fall

  		
Tuning: Drop G# (Hope you have good heavy strings...) 

Intro (First part is probably the same but with a wah or some sort of other effect) 

Play this twice 
A#---------------------------------------------------------| 
F#---------------------------------------------------------| 
C#---------------------------------------------------------| 
G#---------------------------------------------------------| 
D#--------5p0-----5p0----5------------5p0-----5p0---5-4----| 
G#--0-1-0-----1p0------0----0---0-1-0-----1p0-----0--------| 

A#-------------------------------------------------------| 
F#-------------------------------------------------------| 
C#-------------------------------------------------------| 
G#-----------------------------------------3---6---1-----| 
D#--------5p0-----5p0---5-------------5p0--3---6---1-----| 
G#--0-1-0-----1p0-----0-----0---0-1-0------3---6---1-----| 

Verse 
A#---------------------------------------------------------| 
F#---------------------------------------------------------| 
C#---------------------------------------------------------| 
G#-------Bass Plays Here ... No Guitar---------------------| 
D#---------------------------------------------------------| 
G#---------------------------------------------------------| 

Right after "I say it's logical...", play this... 
A#---------------------------------------------------------| 
F#---------------------------------------------------------| 
C#---------------------------------------------------------| 
G#---------------------------------------------------------| 
D#------------------------------4h5-4-4h5-4-4--4-4--4h5-4--| 
G#---0-1p0--0-1-0-0--0-0--0-1p0----------------------------| 

A#---------------------------------------------------------| 
F#---------------------------------------------------------| 
C#---------------------------------------------------------| 
G#---------------------------------------------------------| 
D#------------------------------4h5-4-4h5-4-4--4-4--4h5-4--| 
G#---0-1p0--0-1-0-0--0-0--0-1p0----------------------------| 

"Pre-Chorus" (Two chords... let them each ring out) 
A#---------------------------------------------------------| 
F#---------------------------------------------------------| 
C#---------------------------------------------------------| 
G#---8---------5-------------------------------------------| 
D#---8---------5-------------------------------------------| 
G#---8---------5-------------------------------------------| 

Chorus 
A#--------------------------------------------| 
F#--------------------------------------------| 
C#--------------------------------------------| 
G#---0----5----3----1----0----5----8----1-----| 
D#---0----5----3----1----0----5----8----1-----| 
G#---0----5----3----1----0----5----8----1-----| 

A#--------------------------------------------| 
F#--------------------------------------------| 
C#--------------------------------------------| 
G#---0----5----3----1----0----5----8----1-----| 
D#---0----5----3----1----0----5----8----1-----| 
G#---0----5----3----1----0----5----8----1-----| 

Back to the intro...(played with an effect for the first line) 
A#---------------------------------------------------------| 
F#---------------------------------------------------------| 
C#---------------------------------------------------------| 
G#---------------------------------------------------------| 
D#--------5p0-----5p0----5------------5p0-----5p0---5-4----| 
G#--0-1-0-----1p0------0----0---0-1-0-----1p0-----0--------| 

A#-------------------------------------------------------| 
F#-------------------------------------------------------| 
C#-------------------------------------------------------| 
G#-----------------------------------------3---6---1-----| 
D#--------5p0-----5p0---5-------------5p0--3---6---1-----| 
G#--0-1-0-----1p0-----0-----0---0-1-0------3---6---1-----| 

verse 2 
A#---------------------------------------------------------| 
F#---------------------------------------------------------| 
C#---------------------------------------------------------| 
G#-------Bass Plays Here ... No Guitar---------------------| 
D#---------------------------------------------------------| 
G#---------------------------------------------------------| 

Right after "You're hypocritical...", play this... 
A#---------------------------------------------------------| 
F#---------------------------------------------------------| 
C#---------------------------------------------------------| 
G#---------------------------------------------------------| 
D#------------------------------4h5-4-4h5-4-4--4-4--4h5-4--| 
G#---0-1p0--0-1-0-0--0-0--0-1p0----------------------------| 

A#---------------------------------------------------------| 
F#---------------------------------------------------------| 
C#---------------------------------------------------------| 
G#---------------------------------------------------------| 
D#------------------------------4h5-4-4h5-4-4--4-4--4h5-4--| 
G#---0-1p0--0-1-0-0--0-0--0-1p0----------------------------| 

"Pre-Chorus" (Two chords... let them each ring out) 
A#---------------------------------------------------------| 
F#---------------------------------------------------------| 
C#---------------------------------------------------------| 
G#---8---------5-------------------------------------------| 
D#---8---------5-------------------------------------------| 
G#---8---------5-------------------------------------------| 

Chorus 
A#--------------------------------------------| 
F#--------------------------------------------| 
C#--------------------------------------------| 
G#---0----5----3----1----0----5----8----1-----| 
D#---0----5----3----1----0----5----8----1-----| 
G#---0----5----3----1----0----5----8----1-----| 

A#--------------------------------------------| 
F#--------------------------------------------| 
C#--------------------------------------------| 
G#---0----5----3----1----0----5----8----1-----| 
D#---0----5----3----1----0----5----8----1-----| 
G#---0----5----3----1----0----5----8----1-----| 

Breakdown (begins with the bass playing...) 
A#--------------------------------------------------| 
F#----------------(Play 4x)-------------------------| 
C#--------------------------------------------------| 
G#--------------------------------------------------| 
D#------------------5-5-5-5----------------4-4-4-4--| 
G#---0h1-0--0--1p0----------0h1-0--0--1p0-----------| 

A#--------------------------------------------------| 
F#-----------------(Play 1x)------------------------| 
C#--------------------------------------------------| 
G#--------------------------------------------------| 
D#------------------5-5-5-5-------------------------| 
G#---0h1-0--0--1p0----------0h1-0--0--1-------------| 
 *** Don't let the last note ring out here... make it a stacato) 

Chorus 
A#--------------------------------------------| 
F#--------------------------------------------| 
C#--------------------------------------------| 
G#---0----5----3----1----0----5----8----1-----| 
D#---0----5----3----1----0----5----8----1-----| 
G#---0----5----3----1----0----5----8----1-----| 

A#--------------------------------------------| 
F#--------------------------------------------| 
C#--------------------------------------------| 
G#---0----5----3----1----0----5----8----1-----| 
D#---0----5----3----1----0----5----8----1-----| 
G#---0----5----3----1----0----5----8----1-----| 

A#---------------------------------------------------------| 
F#---------------------------------------------------------| 
C#---------------------------------------------------------| 
G#---------------------------------------------------------| 
D#--------5p0-----5p0----5------------5p0-----5p0---5-4----| 
G#--0-1-0-----1p0------0----0---0-1-0-----1p0-----0--------| 

A#-------------------------------------------------------| 
F#-------------------------------------------------------| 
C#-------------------------------------------------------| 
G#-----------------------------------------3---6---1-----| 
D#--------5p0-----5p0---5-------------5p0--3---6---1-----| 
G#--0-1-0-----1p0-----0-----0---0-1-0------3---6---1-----|