Lost Acapulco

Incidente En Calle Dakota

Lost Acapulco

tabs

by  TERCMORAES

save to print version add songbook text version e-mail correct tuner
chordsukulelecavacokeyboardtabbassdrumsharmonicaflute Guitar Pro
close

there isn't a video lesson for this song

chords

Incidente En Calle Dakota

(Lost acapulco)

	  		Introducción  (bajo) 
g---------------- 
d---------------- 
a----3-5-3------- 
E--5------------- 

Las guitarras comienzan en A 
G2		  	    
e----5-5-5-x-5-5-5-5----    
b----5-5-5-x-5-5-5-5----    
g----5-5-5-x-5-5-5-5----    
d-----------------------    
a-----------------------    
E-----------------------    
La guitarra 2 conserva ese riff casi toda la canción 


G1 				      (variación) 
e-----12-12-12-x-12-12-12-12-------12-12-12-10-12---- 
b-----12-12-12-x-12-12-12-12-------12-12-12-10-12---- 
g-----12-12-12-x-12-12-12-12-------12-12-12-10-12---- 
d---------------------------------------------------- 
a--se repite el riff hasta la variación del final---- 
E---------------------------------------------------- 

G1 
e-12-11------12-11-10-----12-11------12-11-10-9-- 
b-12-11------12-11-10-----10-10------10-10-10-9-- 
g------------------------------------------------ 
d------------------------------------------------ 
a------------------------------------------------ 
E------------------------------------------------ 

G1 este riff es el que comienza a los 42 segs. de la canción. 
e---------------------------------------------------- 
b-12---10-12/10-12---13-12?--10-12/10-12------------- 
g-11---9--9-----9----12-11---9?-9-----9-------------- 
d---------------------------------------------------- 
a---------------------------------------------------- 
E---------------------------------------------------- 

G1 
e------------------------------------------------------ 
b------------------------------------------------------ 
g------------------------------------------------------ 
d-----------------3------------------------------------ 
a-----3-------5-6------------3------------------------- 
E-5-6--------------------5-6--------------------------- 
   8x          4x         4x 

G1 
e---------------------------------------------- 
b---------------------------------------------- 
g---5-7-5---5-7---5-7-5------------------------ 
d-7-------7-----7-------7---------------------- 
a--------------------------000000-------------- 
E---------------------------------------------- 

G1 
e---------------------------------------------- 
b---6-8-6---6-8---6-8-6------------------------ 
g-7-------7-----7-------7---------------------- 
d--------------------------000000-------------- 
a---------------------------------------------- 
E---------------------------------------------- 

En el minuto 3:15 se escucha esto: 
e---------------------------------------------- 
b---------------------------------------------- 
g----------------5-7-7pull up------------------- 
d-7777-7-7777--7-------------------------------- 
a---------------------------------------------- 
E---------------------------------------------- 

Comentarios , sugerencias, correcciones, solo escribanme. 
Saludos  al buen Vidla, a Rules, a Memo Hippie, al famosisimo  Fosh,  
Y al Teto.
		  

See also:

tabs Lost Acapulco - Hollywood Baby tabs Lost Acapulco - Tangatutanga tabs Los Traseros Empapados - No Me Haras Sufrir tabs Brujeria - Ritmos Satanicos tabs Lost Acapulco - Mpm La Quebradora tabs Lost Acapulco - Incidente En Calle Dakota
e-chords

Other versions:

tabs Lost Acapulco - Incidente En Calle Dakota
auto scroll beats size up size down change color hide chords drawings
tab show chords e-chords YouTube Clip e-chords hide all tabs e-chords go to top tab

share