Lost Acapulco

Acapulco Golden

Lost Acapulco

tabs Beginner beginner

by  PACORREA

save to print version add songbook text version e-mail correct tuner
chordsukulelecavacokeyboardtabbassdrumsharmonicaflute Guitar Pro
close

there isn't a video lesson for this song

chords

Acapulco Golden

	  		Intro 
e--------------------------- 
b--------------------------- 
g--------------------------- 
d--------------------------- 
a------2-1-0---------14----- 
e-0-3--------3-0-----12----- 
 
Bajo 
g-------------------------------------------- 
d-------------------------------------------- 
a------2-1-0--------2-1-0---------2-1-0----- 
e-0-3--------3-0-3---------3-0-3------------ 
 
 
e-------------------------------/------------------------------------------------------------------ 
b-------------------------------/------------------------------------------------------------------ 
g-16-12-------------------------/--16-12----------------------------------------------------------- 
d---------14-14-17-14-17--------/----------14-14-17-14-17-14-14-14-14-14-14-14-14------------------ 
a-------------------------------/------------------------------------------------------------------ 
e-------------------------------/------------------------------------------------------------------ 
2X                                           1X 
 
e-12--------------------------------------------------------- 
b-----12--10-12-10------------------------------------------- 
g----------------------9-9-7-7-9-9-12-12-9-9-7-9/5----------- 
d------------------------------------------------------------ 
a------------------------------------------------------------ 
e------------------------------------------------------------ 
 
e------------------------------------------------------------------------ 
b------------------------------------------------------------------------ 
g------------------------------------------------------------------------ 
d--2---------------------------------------------------------------------- 
a--2----------2-1-0--------2-1-0--------2-1-0--------2-1-0--------------- 
e--0-----0-3--------3-0-3--------3-0-3--------3-0-3--------3-0------------ 
 
e----------------------------------------------------------------------- 
b----------------------------------------------------------------------- 
g----------------------------------------------------------------------- 
d----------------------------------------5-5---------------------------- 
a--7-7-7---7-5---7-7-7---7-5---7-7-----------7-7-5-5--7-7-7---7-5------- 
e----------------------------------------------------------------------- 
 
 
 
 
 
e------------------------------------------------------------------------------ 
b------------------------------------------------------------------------------ 
g------------------------------------------------------------------------------ 
d----------------------------------------5-5----------------5-5---------------- 
a--7-7-7---7-5---7-7-7---7-5---7-7-----------7-7-5-5-7-7--------7-7-5-7/1------ 
e------------------------------------------------------------------------------ 
 
 
e-------------------------------------------------------------------------------------------- 
b-------------------------------------------------------------------------------------------- 
g-------------------------------------------------------------------------------------------- 
d-------------------------------------------------------------------------------------------- 
a-------------------------------------------------------------------------------------------- 
e-0-0-0-0-0-0-0-0--3-3-3-3-3-3-3-3-5-5-5-5-5-5-5-5-5/7-5-3-5-0------------------------------- 
El bajo hace este mismo riff y es el unico cambio que hay para el bajo. 
 
e------------------------------------------------------------------------------------------ 
b------------------------------------------------------------------------------------------ 
g------------------------------------------------------------------------------------------ 
d-2-2-2-2-2-2-2-2-5-5-5-5-5-5-5--5-7-7-7-7-7-7-7-7-7/9-7-5-7-------2------------------------ 
a------------------------------------------------------------------2----------------------- 
e------------------------------------------------------------------0----------------------- 
 
 
e------------------------------------------------------------------------ 
b------------------------------------------------------------------------ 
g------------------------------------------------------------------------ 
d--2---------------------------------------------------------------------- 
a--2----------2-1-0--------2-1-0--------2-1-0--------2-1-0----------------- 
e--0-----0-3--------3-0-3--------3-0-3--------3-0-3--------3-0-------------- 
 
e--------------------------------------------------------------------------------------- 
b--------------------------------------------------------------------------------------- 
g--------------------------------------------------------------------------------------- 
d-----------2-1-0--------2-1h2h1h2h1h2-------------------------------------------2------ 
a------0-3--------3-0-3------------------------------2-1-0--------2-1-0----------2----- 
e------------------------------------------------0-3--------3-0-3--------3-0-----0----- 
 
 
 
e------------------3-3-----||--3/5-5-5-5-5-5/7-7-7-7-7-7/10-10-10-10-10-10-10/12-12-12/0----------------- 
b?-----5-5-3-3-5-5---------||---------------------------------------------------------------------------- 
g--------------------------||---------------------------------------------------------------------------- 
d--------------------------||---------------------------------------------------------------------------- 
a--------------------------||---------------------------------------------------------------------------- 
e--------------------------||---------------------------------------------------------------------------- 
16X                                  ?esta parte con pull-up 
 
 
 
e----------0---------- 
b----------0---------- 
g----------0---------- 
d--2-------2---------- 
a--2-------2---------- 
e--0-------0---------- 
 
Saludos al Pelusa 

		  

See also:

tabs Lost Acapulco - Hollywood Baby tabs Lost Acapulco - Tangatutanga tabs Los Traseros Empapados - No Me Haras Sufrir tabs Brujeria - Ritmos Satanicos tabs Lost Acapulco - Mpm La Quebradora tabs Lost Acapulco - Incidente En Calle Dakota
e-chords

Other versions:

tabs Lost Acapulco - Acapulco Golden
auto scroll beats size up size down change color hide chords drawings
tab show chords e-chords YouTube Clip e-chords hide all tabs e-chords go to top tab

share