Link Wray

The Black Widow

Link Wray

tabs

by  ABELAMIN

save to print version add songbook text version e-mail correct tuner
chordsukulelecavacokeyboardtabbassdrumsharmonicaflute Guitar Pro
close

there isn't a video lesson for this song

chords

The Black Widow

	  		
Standard Tuning 
-p- = pull off 
-h- = hammer on 

 (i)1                          (i)2 
e|-----------------------------|-----------------------------| 
B|-----------------------------|-----------------------------| 
G|-----------------------------|-----------------------------| 
D|-----------------------------|-----------------------------| 
A|----7-7p5---5h7-5h7-5---5-7--|----7-7p5---5h7-5h7-5---5-7--| 
E|--7-------7-----------7------|--7-------7-----------7------| 

 (i)3                          (i)4 
e|-----------------------------|-----------------------------| 
B|-----------------------------|-----------------------------| 
G|-----------------------------|-----------------------------| 
D|-----------------------------|-----------------------------| 
A|----7-7p5---5h7-5h7-5---5-7--|----7-7p5---5h7-5h7-5---5-7--| 
E|--7-------7-----------7------|--7-------7-----------7------| 

 (iv)5                         (iv)6 
e|-----------------------------|-----------------------------| 
B|-----------------------------|-----------------------------| 
G|-----------------------------|-----------------------------| 
D|----7-7p5---5h7-5h7-5---5-7--|----7-7p5---5h7-5h7-5---5-7--| 
A|--7-------7-----------7------|--7-------7-----------7------| 
E|-----------------------------|-----------------------------| 

 (i)7                          (i)8 
e|-----------------------------|-----------------------------| 
B|-----------------------------|-----------------------------| 
G|-----------------------------|-----------------------------| 
D|-----------------------------|-----------------------------| 
A|----7-7p5---5h7-5h7-5---5-7--|----7-7p5---5h7-5h7-5---5-7--| 
E|--7-------7-----------7------|--7-------7-----------7------| 

 (v)9                          (iv)10 
e|-----------------------------|-----------------------------| 
B|-----------------------------|-----------------------------| 
G|-----------------------------|-----------------------------| 
D|----9-9p7---7h9-7h9-7---7-9--|----7-7p5---5h7-5h7-5---5-7--| 
A|--9-------9-----------9------|--7-------7-----------7------| 
E|-----------------------------|-----------------------------| 

 (i)11                         (i)12 
e|-----------------------------|-----------------------------| 
B|-----------------------------|-----------------------------| 
G|-----------------------------|-----------------------------| 
D|-----------------------------|-----------------------------| 
A|----7-7p5---5h7-5h7-5---5-7--|----7-7p5---5h7-5h7-5---5-7--| 
E|--7-------7-----------7------|--7-------7-----------7------| 


The song simply repeats this structure throughout. 
There is also a little solo thing Link does but haven't 
figures that out, this should provide a good base for 
throwing licks around on top of however. Cheers 
		  

See also:

tabs Simon & Garfunkel - Sounds of silence tabs The Strokes - Juicebox tabs John Mayer - Belief tabs Guns N' Roses - Sweet Child o' mine tabs Guns N' Roses - November Rain tabs Foo Fighters - Everlong (acústico)
e-chords

Other versions:

tabs Link Wray - The Black Widow
auto scroll beats size up size down change color hide chords drawings
tab show chords e-chords YouTube Clip e-chords hide all tabs e-chords go to top tab

share