Link Wray

Switchblade

Link Wray

bass

by  HEBEALMEIDA

save to print version add songbook text version e-mail correct tuner
chordsukulelecavacokeyboardtabbassdrumsharmonicaflute Guitar Pro
close

there isn't a video lesson for this song

chords

Switchblade

	  		
verse 1 00:12 - 01:22 
G|----------------|----------------|----------------|4---------------| 
D|----------------|----------------|----------------|--7-5-----------| 
A|----------------|----------------|----------------|------7-5-------| x 9 
E|0-0-2-0-5-4-3-2-|0-0-2-0-5-4-3-2-|0-0-2-0-5-4-3-2-|----------7-5-3-| 

Bridge 01:26 
G|----------------| 
D|----------------| 
A|----------------| 
E|0-0-------------| 

G|----------------| 
D|----------------| 
A|----------------| 
E|0-0-------------| 

01:31 
G|--------------------| 
D|--------------------| 
A|--------------------| 
E|0-0-0-0-0-0-0-0-0-0-| 

verse 2 
G|----------------|----------------|----------------|4---------------| 
D|----------------|----------------|----------------|--7-5-----------| 
A|----------------|----------------|----------------|------7-5-------| x 10 
E|0-0-2-0-5-4-3-2-|0-0-2-0-5-4-3-2-|0-0-2-0-5-4-3-2-|----------7-5-3-| 
		  

See also:

bass Guns N' Roses - You Could Be Mine bass Aerosmith - Walk This Way bass The Killers - Somebody Told Me bass Aerosmith - Crazy bass Guns N' Roses - Coma bass Counting Crows - Mr Jones
e-chords

Other versions:

bass Link Wray - Switchblade bass Fall Out Boy - Switchblades And Infidelity
auto scroll beats size up size down change color hide chords drawings
tab show chords e-chords YouTube Clip e-chords hide all tabs e-chords go to top tab

share