Link Wray

Rumble

Link Wray

chords Beginner beginner

by  SHARESILENCE

save to print version add songbook text version e-mail correct tuner
chordsukulelecavacokeyboardtabbassdrumsharmonicaflute Guitar Pro
close

there isn't a video lesson for this song

chords

Rumble

	  		(instrumental) 

D-D-E 
D-D-E 
D-D-A 
D-D-E 
D-D-B7 

   D  D  E    D  D  E    D  D  A    D  D  E    D  D  (B7) 
E|-2--2--0----2--2--0----2--2--0----2--2--0----2--2----2- 
B|-3--3--0----3--3--0----3--3--2----3--3--0----3--3----0- 
G|-2--2--1----2--2--1----2--2--2----2--2--1----2--2---2-- 
D|-0--0--2----0--0--2----0--0--2----0--0--2----0--0------ 
A|-0--0--2----0--0--2----0--0--0----0--0--2----0--0--2--- 
E|-0--0--0----0--0--0----0--0--0----0--0--0----0--0------ 
        
riff                 
E|-3-0------------------------- 
B|-----3-0--------------------- 
G|---------3-2-0--------------- 
D|-------------2-0------------- 
A|-----------------2-0--------- 
E|---------------------3---/--0 

  
  D  D  E  (play this 4 times rapidly for 12 seconds)    A 
E|-2--2--0  -11-12-12-12-12-12-12-12-12-12-12-12------   -0- 
B|-3--3--0  -11-12-12-12-12-12-12-12-12-12-12-12------   -2- 
G|-2--2--1  ------------------------------------------   -2- 
D|-0--0--2  ------------------------------------------   -2- 
A|-0--0--2  ------------------------------------------   -0- 
E|-0--0--0  ------------------------------------------   -0- 

   D  D  E    D  D  B7 
E|-2--2--0----2--2--2--------------------------- 
B|-3--3--0----3--3--0----8---------------------- 
G|-2--2--1----2--2--2------9-7------------------ 
D|-0--0--2----0--0--1----------9-7-5------------ 
A|-0--0--2----0--0--2----------------7-5-------- 
E|-0--0--0----0--0--0--------------------7-5-3-0 

then play Fig.1 one last time 
and gradually add Tremolo Speed until fadeout 

(listent to it on Pulp Fiction, the jack rabbit slim's scene) 
		  

Full key step upFull key step up
Half key step upHalf key step up
Half key step downHalf key step down
Full key step downFull key step down
hide glossary

See also:

chords Foreigner - I Want To Know What Love Is chords Elvis Presley - Amazing Grace chords Simon & Garfunkel - The sounds of silence chords Foo Fighters - Times Like These chords Bon Jovi - Bed Of Roses chords Elvis Presley - Suspicious Minds
e-chords

Other versions:

chords Link Wray - Rumble chords Jamie N. Commons - Rumble And Sway chords Fake Problems - Rumble In The Jungle
auto scroll beats size up size down change color hide chords simplify chords drawings columns
tab show chords e-chords YouTube Clip e-chords hide all tabs e-chords go to top tab

share