Link Wray

Batman Theme

Link Wray

tabs

by  UBIRBOMFIM

save to print version add songbook text version e-mail correct tuner
chordsukulelecavacokeyboardtabbassdrumsharmonicaflute Guitar Pro
close

there isn't a video lesson for this song

chords

Batman Theme

	  		
Gtr I (E A D G B E) - 'Link Wray - Electric Guitar 1' 
Gtr II (E A D G B E) - 'Link Wray - Electric Guitar 2' 


  Q=157 
  N.C. 
 4/4 
  Gtr I (El. Gtr. w/ light dist. & reverb) 
  Wx4 
|--------| 
|--------| 
|--------| 
|--------| 
|--------| 
|--------| 


   W          H    H 
|-----------|-----------| 
|-----------|-----------| 
|-----------|-----------| 
|-----------|-----------| 
|-14S=======|=2---------| 
|-14S=======|=2---------| 


  F# 
  Gtr II 
  E E E E E E E E   E E E E E E E E   E E E E E E E E 
|-----------------|-----------------|-----------------|| 
|-----------------|-----------------|-----------------|| 
|-----------------|-----------------|-----------------|| 
|-4-4-3-3-2-2-3-3-|-4-4-3-3-2-2-3-3-|-4-4-3-3-2-2-3-3-|| 
|-4-4-3-3-2-2-3-3-|-4-4-3-3-2-2-3-3-|-4-4-3-3-2-2-3-3-|| 
|-----------------|-----------------|-----------------|| 


  F# 
  Gtrs I, II (El. Gtrs. w/ light dist. & reverb) 
  E E E E E E E E   E E E E E E E E   E E E E E E E E   E E E E E E E E 
|-----------------|-----------------|-----------------|-----------------| 
|-----------------|-----------------|-----------------|-----------------| 
|-----------------|-----------------|-----------------|-----------------| 
|-----------------|-----------------|-----------------|-----------------| 
|-4-4-4-4-4-4-4-4-|-4-4-4-4-4-4-4-4-|-4-4-4-4-4-4-4-4-|-4-4-4-4-4-4-4-4-| 
|-2-2-1-1-0-0-1-1-|-2-2-1-1-0-0-1-1-|-2-2-1-1-0-0-1-1-|-2-2-1-1-0-0-1-1-| 


  B                                   F# 
  E E E E E E E E   E E E E E E E E   E E E E E E E E   E E E E E E E E 
|-----------------|-----------------|-----------------|-----------------| 
|-----------------|-----------------|-----------------|-----------------| 
|-----------------|-----------------|-----------------|-----------------| 
|-4-4-4-4-4-4-4-4-|-4-4-4-4-4-4-4-4-|-----------------|-----------------| 
|-2-2-1-1-0-0-1-1-|-2-2-1-1-0-0-1-1-|-4-4-4-4-4-4-4-4-|-4-4-4-4-4-4-4-4-| 
|-----------------|-----------------|-2-2-1-1-0-0-1-1-|-2-2-1-1-0-0-1-1-| 


  C#                B                 F# 
  E E E E E E E E   E E E E E E E E   E E E E E E E E   E E E E E E E E 
|-----------------|-----------------|-----------------|-----------------|| 
|-----------------|-----------------|-----------------|-----------------|| 
|-----------------|-----------------|-----------------|-----------------|| 
|-6-6-6-6-6-6-6-6-|-4-4-4-4-4-4-4-4-|-----------------|-----------------|| 
|-4-4-3-3-2-2-3-3-|-2-2-1-1-0-0-1-1-|-4-4-4-4-4-4-4-4-|-4-4-4-4-4-4-4-4-|| 
|-----------------|-----------------|-2-2-1-1-0-0-1-1-|-2-2-1-1-0-0-1-1-|| 


  F# 
  Gtr I 
  E E E E E E E E   E E E E E E E E   E E E E E E E E   E E E E E E E E 
|-2-2-2-2-2-2-2-2-|-2-2-2-2-2-2-2-2-|-2-2-2-2-2-2-2-2-|-2-2-2-2-2-2-2-2-| 
|-2-2-1-1-0-0-1-1-|-2-2-1-1-0-0-1-1-|-2-2-1-1-0-0-1-1-|-2-2-1-1-0-0-1-1-| 
|-----------------|-----------------|-----------------|-----------------| 
|-----------------|-----------------|-----------------|-----------------| 
|-----------------|-----------------|-----------------|-----------------| 
|-----------------|-----------------|-----------------|-----------------| 
| 
| Gtr II 
| E E E E E E E E   E E E E E E E E   E E E E E E E E   E E E E E E E E 
|-----------------|-----------------|-----------------|-----------------| 
|-----------------|-----------------|-----------------|-----------------| 
|-----------------|-----------------|-----------------|-----------------| 
|-----------------|-----------------|-----------------|-----------------| 
|-4-4-4-4-4-4-4-4-|-4-4-4-4-4-4-4-4-|-4-4-4-4-4-4-4-4-|-4-4-4-4-4-4-4-4-| 
|-2-2-1-1-0-0-1-1-|-2-2-1-1-0-0-1-1-|-2-2-1-1-0-0-1-1-|-2-2-1-1-0-0-1-1-| 


  B                                   F# 
  E E E E E E E E   E E E E E E E E   E E E E E E E E   E E E E E E E E 
|-7-7-7-7-7-7-7-7-|-7-7-7-7-7-7-7-7-|-2-2-2-2-2-2-2-2-|-2-2-2-2-2-2-2-2-| 
|-7-7-6-6-5-5-6-6-|-7-7-6-6-5-5-6-6-|-2-2-1-1-0-0-1-1-|-2-2-1-1-0-0-1-1-| 
|-----------------|-----------------|-----------------|-----------------| 
|-----------------|-----------------|-----------------|-----------------| 
|-----------------|-----------------|-----------------|-----------------| 
|-----------------|-----------------|-----------------|-----------------| 
| 
| E E E E E E E E   E E E E E E E E   E E E E E E E E   E E E E E E E E 
|-----------------|-----------------|-----------------|-----------------| 
|-----------------|-----------------|-----------------|-----------------| 
|-----------------|-----------------|-----------------|-----------------| 
|-4-4-4-4-4-4-4-4-|-4-4-4-4-4-4-4-4-|-----------------|-----------------| 
|-2-2-1-1-0-0-1-1-|-2-2-1-1-0-0-1-1-|-4-4-4-4-4-4-4-4-|-4-4-4-4-4-4-4-4-| 
|-----------------|-----------------|-2-2-1-1-0-0-1-1-|-2-2-1-1-0-0-1-1-| 


  C#                B                 F# 
  E E E E E E E E   E E E E E E E E   E E E E E E E E   E E E E E E E E 
|-9-9-9-9-9-9-9-9-|-7-7-7-7-7-7-7-7-|-2-2-2-2-2-2-2-2-|-2-2-2-2-2-2-2-2-|| 
|-9-9-8-8-7-7-8-8-|-7-7-6-6-5-5-6-6-|-2-2-1-1-0-0-1-1-|-2-2-1-1-0-0-1-1-|| 
|-----------------|-----------------|-----------------|-----------------|| 
|-----------------|-----------------|-----------------|-----------------|| 
|-----------------|-----------------|-----------------|-----------------|| 
|-----------------|-----------------|-----------------|-----------------|| 
| 
| E E E E E E E E   E E E E E E E E   E E E E E E E E   E E E E E E E E 
|-----------------|-----------------|-----------------|-----------------|| 
|-----------------|-----------------|-----------------|-----------------|| 
|-----------------|-----------------|-----------------|-----------------|| 
|-6-6-6-6-6-6-6-6-|-4-4-4-4-4-4-4-4-|-----------------|-----------------|| 
|-4-4-3-3-2-2-3-3-|-2-2-1-1-0-0-1-1-|-4-4-4-4-4-4-4-4-|-4-4-4-4-4-4-4-4-|| 
|-----------------|-----------------|-2-2-1-1-0-0-1-1-|-2-2-1-1-0-0-1-1-|| 


  Gtr II 
  q  Q  H      Wx3 
|------------|--------| 
|------------|--------| 
|------------|--------| 
|------------|--------| 
|-4----------|--------| 
|-2----------|--------| 


  N.C. 
  Gtr I 
  S E.  H.       H       H         W 
|-x-x----------|-----------------|-----------------|| 
|-x-x----------|-----------------|-----------------|| 
|--------------|-----------------|-----------------|| 
|--------------|-----------------|-----------------|| 
|------14S=====|=2---------------|-----------------|| 
|------14S=====|=2---------------|-----------------|| 
| 
| Gtr II 
| W              E E E E E E E E   E E E E E E E E 
|--------------|-----------------|-----------------|| 
|--------------|-----------------|-----------------|| 
|--------------|-----------------|-----------------|| 
|--------------|-4-4-3-3-2-2-3-3-|-4-4-3-3-2-2-3-3-|| 
|--------------|-----------------|-----------------|| 
|--------------|-----------------|-----------------|| 


    F# 
    E E E E E E E E   E E E E E E E E   E E E E E E E E   E E E E E E E E 
||--2-2-2-2-2-2-2-2-|-2-2-2-2-2-2-2-2-|-2-2-2-2-2-2-2-2-|-2-2-2-2-2-2-2-2--| 
||o-2-2-1-1-0-0-1-1-|-2-2-1-1-0-0-1-1-|-2-2-1-1-0-0-1-1-|-2-2-1-1-0-0-1-1--| 
||------------------|-----------------|-----------------|------------------| 
||------------------|-----------------|-----------------|------------------| 
||o-----------------|-----------------|-----------------|------------------| 
||------------------|-----------------|-----------------|------------------| 
| 
|   E E E E E E E E   E E E E E E E E   E E E E E E E E   E E E E E E E E 
||------------------|-----------------|-----------------|------------------| 
||o-----------------|-----------------|-----------------|------------------| 
||------------------|-----------------|-----------------|------------------| 
||------------------|-----------------|-----------------|------------------| 
||o-4-4-4-4-4-4-4-4-|-4-4-4-4-4-4-4-4-|-4-4-4-4-4-4-4-4-|-4-4-4-4-4-4-4-4--| 
||--2-2-1-1-0-0-1-1-|-2-2-1-1-0-0-1-1-|-2-2-1-1-0-0-1-1-|-2-2-1-1-0-0-1-1--| 


  B                                   F# 
  E E E E E E E E   E E E E E E E E   E E E E E E E E   E E E E E E E E 
|-7-7-7-7-7-7-7-7-|-7-7-7-7-7-7-7-7-|-2-2-2-2-2-2-2-2-|-2-2-2-2-2-2-2-2-| 
|-7-7-6-6-5-5-6-6-|-7-7-6-6-5-5-6-6-|-2-2-1-1-0-0-1-1-|-2-2-1-1-0-0-1-1-| 
|-----------------|-----------------|-----------------|-----------------| 
|-----------------|-----------------|-----------------|-----------------| 
|-----------------|-----------------|-----------------|-----------------| 
|-----------------|-----------------|-----------------|-----------------| 
| 
| E E E E E E E E   E E E E E E E E   E E E E E E E E   E E E E E E E E 
|-----------------|-----------------|-----------------|-----------------| 
|-----------------|-----------------|-----------------|-----------------| 
|-----------------|-----------------|-----------------|-----------------| 
|-4-4-4-4-4-4-4-4-|-4-4-4-4-4-4-4-4-|-----------------|-----------------| 
|-2-2-1-1-0-0-1-1-|-2-2-1-1-0-0-1-1-|-4-4-4-4-4-4-4-4-|-4-4-4-4-4-4-4-4-| 
|-----------------|-----------------|-2-2-1-1-0-0-1-1-|-2-2-1-1-0-0-1-1-| 


  C#                                  F# 
  E E E E E E E E   E E E E E E E E   E E E E E E E E   E E E E E E E E 
|-9-9-9-9-9-9-9-9-|-7-7-7-7-7-7-7-7-|-2-2-2-2-2-2-2-2-|-2-2-2-2-2-2-2-2-| 
|-9-9-8-8-7-7-8-8-|-7-7-6-6-5-5-6-6-|-2-2-1-1-0-0-1-1-|-2-2-1-1-0-0-1-1-| 
|-----------------|-----------------|-----------------|-----------------| 
|-----------------|-----------------|-----------------|-----------------| 
|-----------------|-----------------|-----------------|-----------------| 
|-----------------|-----------------|-----------------|-----------------| 
| 
| E E E E E E E E   E E E E E E E E   E E E E E E E E   E E E E E E E E 
|-----------------|-----------------|-----------------|-----------------| 
|-----------------|-----------------|-----------------|-----------------| 
|-----------------|-----------------|-----------------|-----------------| 
|-6-6-6-6-6-6-6-6-|-4-4-4-4-4-4-4-4-|-----------------|-----------------| 
|-4-4-3-3-2-2-3-3-|-2-2-1-1-0-0-1-1-|-4-4-4-4-4-4-4-4-|-4-4-4-4-4-4-4-4-| 
|-----------------|-----------------|-2-2-1-1-0-0-1-1-|-2-2-1-1-0-0-1-1-| 


  F# 
  Q   H.             +H        H         Q   H.             +H        H 
|-2---2------------|-(2)---------------|-2---2------------|-(2)---------------| 
|-2---2------------|-(2)---------------|-2---2------------|-(2)---------------| 
|------------------|-------------------|------------------|-------------------| 
|------------------|-------------------|------------------|-------------------| 
|------------------|-------------------|------------------|-------------------| 
|------------------|-------------------|------------------|-------------------| 
| 
| E E E  E E E E E    E  E E E E E E E   E E E  E E E E E    E  E E E E E E E 
|------------------|-------------------|------------------|-------------------| 
|------------------|-------------------|------------------|-------------------| 
|------------------|-------------------|------------------|-------------------| 
|------------------|-------------------|------------------|-------------------| 
|-4-4-4--4-4-4-4-4-|--4--4-4-4-4-4-4-4-|-4-4-4--4-4-4-4-4-|--4--4-4-4-4-4-4-4-| 
|-2-2-1--1-0-0-1-1-|--2--2-1-1-0-0-1-1-|-2-2-1--1-0-0-1-1-|--2--2-1-1-0-0-1-1-| 


  B                                      F# 
  Q   H.             +H        H         Q   H.             +H        H 
|-7---7------------|-(7)---------------|-2---2------------|-(2)---------------| 
|-7---7------------|-(7)---------------|-2---2------------|-(2)---------------| 
|-8---8------------|-(8)---------------|------------------|-------------------| 
|------------------|-------------------|------------------|-------------------| 
|------------------|-------------------|------------------|-------------------| 
|------------------|-------------------|------------------|-------------------| 
| 
| E E E  E E E E E    E  E E E E E E E   E E E  E E E E E    E  E E E E E E E 
|------------------|-------------------|------------------|-------------------| 
|------------------|-------------------|------------------|-------------------| 
|------------------|-------------------|------------------|-------------------| 
|-4-4-4--4-4-4-4-4-|--4--4-4-4-4-4-4-4-|------------------|-------------------| 
|-2-2-1--1-0-0-1-1-|--2--2-1-1-0-0-1-1-|-4-4-4--4-4-4-4-4-|--4--4-4-4-4-4-4-4-| 
|------------------|-------------------|-2-2-1--1-0-0-1-1-|--2--2-1-1-0-0-1-1-| 


  C#                   B 
   Q    H.             Q   H. 
|--9----9------------|-7---7------------| 
|--9----9------------|-7---7------------| 
|-10---10------------|-8---8------------| 
|--------------------|------------------| 
|--------------------|------------------| 
|--------------------|------------------| 
| 
|  E E  E  E E E E E   E E E  E E E E E 
|--------------------|------------------| 
|--------------------|------------------| 
|--------------------|------------------| 
|--6-6--6--6-6-6-6-6-|-4-4-4--4-4-4-4-4-| 
|--4-4--3--3-2-2-3-3-|-2-2-1--1-0-0-1-1-| 
|--------------------|------------------| 


  F# 
  Q   H.             +H        H 
|-2---2------------|-(2)----------------|| 
|-2---2------------|-(2)---------------o|| 
|------------------|--------------------|| 
|------------------|--------------------|| 
|------------------|-------------------o|| 
|------------------|--------------------|| 
| 
| E E E  E E E E E    E  E E E E E E E 
|------------------|--------------------|| 
|------------------|-------------------o|| 
|------------------|--------------------|| 
|------------------|--------------------|| 
|-4-4-4--4-4-4-4-4-|--4--4-4-4-4-4-4-4-o|| 
|-2-2-1--1-0-0-1-1-|--2--2-1-1-0-0-1-1--|| 
 
		  

Full key step upFull key step up
Half key step upHalf key step up
Half key step downHalf key step down
Full key step downFull key step down
hide glossary

See also:

tabs Simon & Garfunkel - Sounds of silence tabs The Strokes - Juicebox tabs John Mayer - Belief tabs Guns N' Roses - Sweet Child o' mine tabs Guns N' Roses - November Rain tabs Foo Fighters - Everlong (acústico)
e-chords

Other versions:

tabs Soundtracks - Batman - Theme tabs Léo e Marco Thulio - Batman Theme tabs Link Wray - Batman Theme
auto scroll beats size up size down change color hide chords drawings
tab show chords e-chords YouTube Clip e-chords hide all tabs e-chords go to top tab

share