Kylesa

Unknown Awareness

Kylesa

tabs

by  FERNSANTANA

save to print version add songbook text version e-mail correct tuner
chordsukulelecavacokeyboardtabbassdrumsharmonicaflute Guitar Pro
close

there isn't a video lesson for this song

chords

Unknown Awareness

	  		
Intro 

Guitar 2 (0:20) Use Wah Pedal  
D|-----------------------------------------------------| 
A|-----------------------------------------------------| 
F|-----------------------------------------------------| 
C|-12~~--12br12~~-----12--10--12----12br12~~----12--10-| 
G|-----------------------------------------------------| 
A|-----------------------------------------------------| 

Verse 

Guitar 1 (0:32) 
D|----------------------------------------------------| 
A|----------------------------------------------------| 
F|-7~~~--8--5--7~~----8--5--7~~-----8--5--7~~----8--5-| 
C|-x-----x--x--x------x--x--x-------x--x--x------x--x-| 
G|-5~~~--6--3--5~~----6--3--5~~-----6--3--5~~----6--3-| 
A|----------------------------------------------------| 
 | 
Guitar 2 (0:32) Use Wah Pedal 
 | 
D|-----------------------------------------------------| 
A|-----------------------------------------------------| 
F|-----------------------------------------------------| 
C|-12~~--12br12~~-----12--10--12----12br12~~----12--10-| 
G|-----------------------------------------------------| 
A|-----------------------------------------------------| 


Pre-Chorus 

Guitar 1 (0:44) 
D|--------------------------------------------------------------| x4 
A|--------------------------------------------------------------| 
F|-7-7-7--7-7-7--7-7-7--7-7-7--10-10-10s-3-3-3s-10-10-10s-5-5-5-| 
C|-x-x-x--x-x-x--x-x-x--x-x-x--x--x--x---x-x-x--x--x--x---x-x-x-| 
G|-5-5-5--5-5-5--5-5-5--5-5-5--8--8--8s--5-5-5s-8--8--8s--3-3-3-| 
A|--------------------------------------------------------------| 
 | 
Guitar 2 (0:44) Use Wah Pedal 
 | 
D|-10~----------------------------------------------| x4 
A|-----------------------------11~--------------10~-| 
F|--------------------------------------------------| 
C|--------------------------------------------------| 
G|--------------------------------------------------| 
A|--------------------------------------------------| 

Verse 

Guitar 1 (1:08) 
D|----------------------------------------------------| 
A|----------------------------------------------------| 
F|-7~~~--8--5--7~~----8--5--7~~-----8--5--7~~----8--5-| 
C|-x-----x--x--x------x--x--x-------x--x--x------x--x-| 
G|-5~~~--6--3--5~~----6--3--5~~-----6--3--5~~----6--3-| 
A|----------------------------------------------------| 
 | 
Guitar 2 (1:08) Use Wah Pedal 
 | 
D|-----------------------------------------------------| 
A|-----------------------------------------------------| 
F|-----------------------------------------------------| 
C|-12~~--12br12~~-----12--10--12----12br12~~----12--10-| 
G|-----------------------------------------------------| 
A|-----------------------------------------------------| 


Chorus 

Guitar 1 (1:20) 
D|------------------------------------------------| x4 
A|------------------------------------------------| 
F|------------------------------------------------| 
C|------------------------------------------------| 
G|-5~-5-5-5~-5-5s8~-8--8--8-8s-3-3-3-3-3-3-3s-6-5-| 
A|-3~-3-3-3~-3-3s6~-6--6--6-6s-1-1-1-1-1-1-1s-4-3-| 
 |                                                 
Guitar 2 (1:20) 
 | 
D|------------------10 10~--10------------------------|x2 
A|--------10~-10h11------------11-10------------------| 
F|-7-9h10----------------------------10-9h10p9h10p7~~-| 
C|----------------------------------------------------| 
G|----------------------------------------------------| 
A|----------------------------------------------------| 

Guitar 2 (1:32) 
D|-10-10-10-10--------------------------10-10-10-10--------------------------------| x2 
A|--------------13-13-13--11-11-11-10~--------------13-13-13--11-11-11-10--11--10~-| 
F|---------------------------------------------------------------------------------| 
C|---------------------------------------------------------------------------------| 
G|---------------------------------------------------------------------------------| 
A|---------------------------------------------------------------------------------| 


Verse 

Guitar 1 (1:44) 
D|-------------------------------------------| 
A|-------------------------------------------| 
F|-7~~~-8--5--7~~--8--5--7~~--8--5--7~~-8--5-| 
C|-x----x--x--x----x--x--x----x--x--x---x--x-| 
G|-5~~~-6--3--5~~--6--3--5~~--6--3--5~~-6--3-| 
A|-------------------------------------------| 
 | 
Guitar 2 (1:44) 
D|------------10~-------------------10~------| 
A|-----------------------10~-----------------| 
F|-------------------------------------------| 
C|-------------------------------------------| 
G|-------------------------------------------| 
A|-------------------------------------------| 


Pre-Chorus 

Guitar 1 (1:56) 
D|--------------------------------------------------------------| x4 
A|--------------------------------------------------------------| 
F|-7-7-7--7-7-7--7-7-7--7-7-7--10-10-10s-3-3-3s-10-10-10s-5-5-5-| 
C|-x-x-x--x-x-x--x-x-x--x-x-x--x--x--x---x-x-x--x--x--x---x-x-x-| 
G|-5-5-5--5-5-5--5-5-5--5-5-5--8--8--8s--5-5-5s-8--8--8s--3-3-3-| 
A|--------------------------------------------------------------| 
 | 
Guitar 2 (1:56) 
 | 
D|-10~----------------------------------------------| x4 
A|-----------------------------11~--------------10~-| 
F|--------------------------------------------------| 
C|--------------------------------------------------| 
G|--------------------------------------------------| 
A|--------------------------------------------------| 


Chorus 

Guitar 1 (2:20) 
D|------------------------------------------------| x4 
A|------------------------------------------------| 
F|------------------------------------------------|   Final time hold the 
C|------------------------------------------------|   last chord 
G|-5~-5-5-5~-5-5s8~-8--8--8-8s-3-3-3-3-3-3-3s-6-5-| 
A|-3~-3-3-3~-3-3s6~-6--6--6-6s-1-1-1-1-1-1-1s-4-3-|  
 | 
Guitar 2 (2:20) 
 | 
D|------------------10 10~--10------------------------|x2 
A|--------10~-10h11------------11-10------------------| 
F|-7-9h10----------------------------10-9h10p9h10p7~~-| 
C|----------------------------------------------------| 
G|----------------------------------------------------| 
A|----------------------------------------------------| 


Guitar 2 (2:32) 
D|-10-10-10-10--------------------------10-10-10-10--------------------------------| x2 
A|--------------13-13-13--11-11-11-10~--------------13-13-13--11-11-11-10--11--10~-| 
F|---------------------------------------------------------------------------------| 
C|---------------------------------------------------------------------------------| 
G|---------------------------------------------------------------------------------| 
A|---------------------------------------------------------------------------------|    


Bridge 

Guitar 1 (2:49) 
D|---------------------------| 
A|---------------------------| 
F|---------------------------| 
C|---------------------------| 
G|-6-5~~-----6-5~~-----6-5~~-| 
A|-4-3~~-----4-3~~-----4-3~~-| 

Guitar 2 (3:05) 
   PM--------| 
D|-----------------| 
A|-----------------| 
F|-10-10-10-10-9-7-| 
C|-----------------| 
G|-----------------| 
A|-----------------| 


Guitar 1 (3:07) 
D|------------------------------------------| x4 
A|------------------------------------------| 
F|------------------------------------------| 
C|------------------------------------------| 
G|-5--5-5-5--5-5-5-5--5--5-5-5--3-3-3-3-6-5-| 
A|-3--3-3-3--3-3-3-3--3--3-3-3--1-1-1-1-4-3-| 
 | 
Guitar 2 (3:07) 
 | 
D|-------------------------------------------------------------------| 
A|-10s-----------10s-10------------------10s-----10s-10--------------| 
F|-----(10)--9h10--------10-7-10b-10b--------9h10-------10-7-10b-10b-| 
C|-------------------------------------------------------------------| 
G|-------------------------------------------------------------------| 
A|-------------------------------------------------------------------| 

D|-------------------------------------------------------------------------| 
A|-10s--------10--------10--------------10s--------10--------10------------| 
F|-------9h10------9h10----10-11b-11b---------9h10------9h10----10-11b-11b-| 
C|-------------------------------------------------------------------------| 
G|-------------------------------------------------------------------------| 
A|-------------------------------------------------------------------------| 


Chorus 

Guitar 1 (3:30) 
D|------------------------------------------------| x4 
A|------------------------------------------------| 
F|------------------------------------------------| 
C|------------------------------------------------| 
G|-5~-5-5-5~-5-5s8~-8--8--8-8s-3-3-3-3-3-3-3s-6-5-| 
A|-3~-3-3-3~-3-3s6~-6--6--6-6s-1-1-1-1-1-1-1s-4-3-| 
 | 
Guitar 2 (3:30) 
 | 
D|------------------10 10~--10------------------------|x2 
A|--------10~-10h11------------11-10------------------| 
F|-7-9h10----------------------------10-9h10p9h10p7~~-| 
C|----------------------------------------------------| 
G|----------------------------------------------------| 
A|----------------------------------------------------| 

Guitar 2 (3:42) 
D|-10-10-10-10--------------------------10-10-10-10--------------------------------| x2 
A|--------------13-13-13--11-11-11-10~--------------13-13-13--11-11-11-10--11--10~-| 
F|---------------------------------------------------------------------------------| 
C|---------------------------------------------------------------------------------| 
G|---------------------------------------------------------------------------------| 
A|---------------------------------------------------------------------------------| 

Outro 

Guitar 1 (3:53) 
D|-----------------------------------------| x4 
A|-----------------------------------------| 
F|-----------------------------------------| 
C|-----------------------------------------| 
G|-5~--5-5~--5-5-5-5--8~--8-8~-3-3-3-3-6-5-| 
A|-3~--3-3~--3-3-3-3--6~--6-6~-1-1-1-1-4-3-| 
 | 
Guitar 2 (3:53) 
 | 
D|------------------10 10~--10------------------------|x2 
A|--------10~-10h11------------11-10------------------| 
F|-7-9h10----------------------------10-9h10p9h10p7~~-| 
C|----------------------------------------------------| 
G|----------------------------------------------------| 
A|----------------------------------------------------| 

Guitar 2 
D|-10-10-10-10--------------------------10-10-10-10--------------------------------| x2 
A|--------------13-13-13--11-11-11-10~--------------13-13-13--11-11-11-10--11--10~-| 
F|---------------------------------------------------------------------------------| 
C|---------------------------------------------------------------------------------| 
G|---------------------------------------------------------------------------------| 
A|---------------------------------------------------------------------------------| 
		  

See also:

tabs Kylesa - To Walk Alone tabs Chickenfoot - No Change tabs Chickenfoot - Last Temptation tabs Chickenfoot - Dubai Blues tabs Kylesa - Unknown Awareness
e-chords

Other versions:

tabs Kylesa - Unknown Awareness
auto scroll beats size up size down change color hide chords drawings
tab show chords e-chords YouTube Clip e-chords hide all tabs e-chords go to top tab

share