Chickenfoot

No Change

Chickenfoot

tabs Advanced advanced

by  JOV-CORREA

save to print version add songbook text version e-mail correct tuner
chordsukulelecavacokeyboardtabbassdrumsharmonicaflute Guitar Pro
close

there isn't a video lesson for this song

chords

No Change

	  		

Intro- Chords from  

     Emaj7        Ab sus4               
eb|--0----------|-------------|--0----------|---------------| 
Bb|-13----------|-------------|-13----------|-10------------| 
Gb|-10----------|-7-----------|-10----------|-7-------------| 
Db|-------------|-7-----------|-------------|-7-------------| 
Ab|-------------|-0-----------|-------------|-0------x/12\--| 
Eb|-------------|-------------|-------------|---------------| 




Main Riff  

eb|-------------------------|-------------------------| 
Bb|-------------------------|-------------------------| 
Gb|-------------------------|-------------------------| 
Db|-------------------------|-------------------------| 
Ab|-------------------------|-------------------------| 
Eb|-3-5--5--5--5--8-5--5-3--|-3-5--5--5--5--3-5--6PH~-| 

eb|-------------------------|----------------------------| 
Bb|-------------------------|----------------------------| 
Gb|-------------------------|--------------------------5-| 
Db|-------------------------|------------------5-6-7-7---| 
Ab|-------------------------|---------5--6--7------------| 
Eb|-3-5--5--5--5--8-5--5-3--|-3/5--8---------------------| 




Verse Part -     See L1-L4 

L1 
eb|-------------------------|-----------------------| 
Bb|-------------------------|-----------------------| 
Gb|-------------------------|-----------------------| 
Db|-------------------------|-----------------------| 
Ab|-------------------------|-----------------------| 
Eb|-3-5--5--5--5--3-5--5-3--|-3-5--5--5--5--3-5--6~-| 


L2 
e|-------------------------|-----------------------| 
B|-------------------------|-----------------------| 
G|-------------------------|-----------------------| 
D|-------------------------|-----------------------| 
A|-------------------------|-----------------------| 
E|-3-5--5--5--5--3-5--5-3--|-3-5--5--5--5--3-5--3--| 


repeat L1 


L4 
eb|-------------------------|----------------------------| 
Bb|-------------------------|----------------------------| 
Gb|-------------------------|--------------------------5-| 
Db|-------------------------|------------------5-6-7-7---| 
Ab|-------------------------|---------5--6--7------------| 
Eb|-3-5--5--5--5--3-5--5-3--|-3/5--8---------------------| 






Chorus - Repeat once but do pick scrape at end 
eb|-5----------|-3----------|-5----------|--------------| 
Bb|-5----------|-3----------|-5----------|--------------| 
Gb|-5----------|-4----------|-5----------|--------------| 
Db|-7----------|-5----------|-7----------|--------------| 
Ab|-7----------|-5----------|-7----------|--------------| 
Eb|-5----------|-3----------|-5----------|-5~~~~~~~~----| 

  



Verse 2 - Play Verse Riff again 

Play Chorus Again 



Rhythm Part for solo -  

eb|------------------------------| 
Bb|------------------------------| 
Gb|------------------------------| 
Db|------------------------------| 
Ab|------------------------------| 
Eb|-1p0-0-1--1--1--1p0-0-1p0-0-0-| 
play with some palm muting alternated throughout 


Solo Part - use tremelo picking on each note 

eb|-/22------|-22-20-19-20-22-20-19-17-|-19-20-19-17-19-17-15-13-|-15-13-12-10-12--| 
Bb|----------|-------------------------|-------------------------|-----------------| 
Gb|----------|-------------------------|-------------------------|-----------------| 
Db|----------|-------------------------|-------------------------|-----------------| 
Ab|----------|-------------------------|-------------------------|-----------------| 
Eb|----------|-------------------------|-------------------------|-----------------| 

eb|-0h17-0h15-0h13-0h12-0h13-0h12-|-0h10-0h12-0h10-0h8-0h10-0h8-| 
Bb|-------------------------------|-----------------------------| 
Gb|-------------------------------|-----------------------------| 
Db|-------------------------------|-----------------------------| 
Ab|-------------------------------|-----------------------------| 
Eb|-------------------------------|-----------------------------| 

eb|-0h7-0h5-0h7-0h5-0h3-0h5-|-0h3-0h1h3p1p0---------------| 
Bb|-------------------------|---------------/5------------| 
Gb|-------------------------|-----------------------------| 
Db|-------------------------|-----------------------------| 
Ab|-------------------------|-----------------------------| 
Eb|-------------------------|-----------------------------| 



Echo guitar Part 
eb|--------------|--------------|-----------------------------| 
Bb|--------------|--------------|-----------------------------| 
Gb|-9/11\--------|--5b6-5~~~~---|-feedback--------------------| 
Db|--------------|--------------|-----------------------------| 
Ab|--------------|--------------|-----------------------------| 
Eb|--------------|--------------|-----------------------------| 


2:11  
eb|-------------------------------------|-------------------------------------| 
Bb|-------------------------------------|-------------------------------------| 
Gb|-3T12-T12-3T12-T12-3T12-T12-3T12-T12-|-6T10-T10-6T10-T10-6T10-T10-6T10-T10-| 
Db|-------------------------------------|-------------------------------------| 
Ab|-------------------------------------|-------------------------------------| 
Eb|-------------------------------------|-------------------------------------| 

eb|-------------------------------------| 
Bb|-------------------------------------| 
Gb|--6T10-T10-6T10-T10-6T10-T10--6/19---| 
Db|-------------------------------------| 
Ab|-------------------------------------| 
Eb|-------------------------------------| 

eb|-3T10-T10-3T10-T10-3T10-T10-3T10-T10-|-6T15-T15-6T15-T15-6T15-T15-6T15-T15-| 
Bb|-------------------------------------|-------------------------------------| 
Gb|-------------------------------------|-------------------------------------| 
Db|-------------------------------------|-------------------------------------| 
Ab|-------------------------------------|-------------------------------------| 
Eb|-------------------------------------|-------------------------------------| 

  play  
eb|-T13-T13p10p9-T13-T13p10p9-T13-T13p10p9-T13-T13p10p9-|-13/---x\---- 
Bb|-----------------------------------------------------|-------x\---- 
Gb|-----------------------------------------------------|------------- 
Db|-----------------------------------------------------|------------- 
Ab|-----------------------------------------------------|------------- 
Eb|-----------------------------------------------------|------------- 

  sweep 4x............             sweep 4x......... 
eb|----------17--------------------|----------17---------------| 
Bb|-------18----18-----------------|-------17----17------------| 
Gb|----17----------17--------------|----17----------17---------| 
Db|-15----------------15-----------|-14------------------------| 
Ab|--------------------------------|---------------------------| 
Eb|--------------------------------|---------------------------| 

  sweep 4x............             sweep 2x......... 
eb|----------17--------------------|----------17--------15--15/17~~--| 
Bb|-------18----18-----------------|-------17----17-------17---------| 
Gb|----17----------17--------------|----17----------17---------------| 
Db|-15----------------15-----------|-14------------------------------| 
Ab|--------------------------------|---------------------------------| 
Eb|--------------------------------|---------------------------------| 
 
		  

Full key step upFull key step up
Half key step upHalf key step up
Half key step downHalf key step down
Full key step downFull key step down
auto scroll beats size up size down change color hide chords drawings
tab show chords e-chords YouTube Clip e-chords hide all tabs e-chords go to top tab

share