Kuarto de Empregada

Saia Bicicletinha

Kuarto de Empregada

tabs Beginner beginner

by  IIILUKINHASIII

save to print version add songbook text version e-mail correct tuner
chordsukulelecavacokeyboardtabbassdrumsharmonicaflute Guitar Pro
close

there isn't a video lesson for this song

chords

Saia Bicicletinha

	  		solo guitarra 

E|-------------------------------------------------------------------------------- 
B|--------------------------------------------------------------------------------- 
G|-------------------0-----0-0-0--0-------------------------------------------- 
D|-0--4-4-4-4-------0------------4-0--4-4-4-4--2--2-4-2--0--2--4--- 
A|---------------------------------------------------------------------------------- 
E|--------------------------------------------------------------------------------- 

E|--------------------------------------------------------------------------------- 
B|---------------------------------------------------------------------------------- 
G|------------------0-----0-0-0--0---------------------------------------------- 
D|-0--4-4-4-4-------0------------4-0-4-4-4-4---2--2-4--2--0----------- 
A|--------------------------------------------------------------------------4--2---- 
E|---------------------------------------------------------------------------------- 
		  

See also:

tabs Bonde Neurose - Um morto muito louco tabs Asa de Águia - Bota Pra Ferver tabs Carlinhos Brown - Uma Criança Com Seu Olhar tabs Asa de Águia - Dia Dos Namorados tabs Black Style - Fica Atoladinha tabs Ivete Sangalo - Deixo
e-chords

Other versions:

tabs Kuarto de Empregada - Saia Bicicletinha
auto scroll beats size up size down change color hide chords drawings
tab show chords e-chords YouTube Clip e-chords hide all tabs e-chords go to top tab

share with facebook