Asa de Águia

home > Asa de Águia

Oba vou passear Tab

Asa de Águia

Difficulty: nolevelnolevel

by daniellerulez

tuner correct add songbook print version text version save to e-mail
chordsukulelecavacokeyboardtabbassdrumsharmonicsflute Guitar Pro
chords

Oba vou passear

Year: 1997 - Album: Ao Vivo

	  Introdução: 
E|-9----------------------------------------------------- 
B|--10-10--12-10-12-10--10-12-10-12-10------------------- 
G|------------------------------------11-10-9------------ 
D|------------------------------------------------------- 
A|------------------------------------------------------- 
E|------------------------------------------------------- 

E|-9----------------------10-10-9-7---------------------- 
B|--10-10--12-10-12-10--10------------------------------- 
G|------------------------------------------------------- 
D|------------------------------------------------------- 
A|------------------------------------------------------- 
E|------------------------------------------------------- 


Meio (solo): 
E|-9-9-9-12-9-------------------9-9-9-12-9--------------- 
B|-----------10-10-12-10--10--------------10-10-12-10--10 
G|----------------------11---------------------------11-- 
D|------------------------------------------------------- 
A|------------------------------------------------------- 
E|------------------------------------------------------- 

E|-9-9-9-12-9---------------10-10-9-7-------------------- 
B|-----------10-10-12-10--10----------------------------- 
G|------------------------------------------------------- 
D|------------------------------------------------------- 
A|------------------------------------------------------- 
E|------------------------------------------------------- 
	  

there isn't a video lesson for this song

request
Search Paypal
auto scroll beats size up size down change color hide chords drawings
tab show chords e-chords YouTube Clip e-chords hide all tabs e-chords go to top tab