Kreator

Enemy Of God

Kreator

tabs Beginner beginner

by  VELHO

save to print version add songbook text version e-mail correct tuner
chordsukulelecavacokeyboardtabbassdrumsharmonicaflute Guitar Pro
close

there isn't a video lesson for this song

chords

Enemy Of God

	  		Tuning: D Standard (D G C F A D) 

Intro: 
4/4 
 Fig 1: 
    E  E  S S S S E  E  S S S S   E  E  S S S S E  E  S S S S  
|-------------------------------|-----------------------------| 
|-o-----------------------------|-----------------------------| 
|-------------------------------|-----------------------------| 
|-------------------------------|-----------------------------| 
|-o-----------------------------|-----------------------------| 
|---6--0--0-0-0-0-3--0--0-0-0-0-|-3--0--0-0-0-0-5--3--0-0-0-0-| 
|      -  - - - -    -  - - - -      -  - - - -       - - - - 
|   E  (Q.)       (H)             (W) 
|-------------------------------|-----------------------------| 
|-o-----------------------------|-----------------------------| 
|---3---------------------------|-----------------------------| 
|---3---------------------------|-----------------------------| 
|-o-1---------------------------|-----------------------------| 
|-------------------------------|-----------------------------| 

  E  E  S S S S E  E  S S S S   Q   Q   Q   Q 
|-----------------------------|-----------------| 
|-----------------------------|-----------------| 
|-----------------------------|-----4---3-------| 
|-----------------------------|-5---4---3---3---| 
|-----------------------------|-5---2---1---3---| 
|-5--0--0-0-0-0-6--3--0-0-0-0-|-3-----------1---| 
|    -  - - - -       - - - -  
| (W)                           Q   Q   Q   Q 
|-----------------------------|-----------------| 
|-----------------------------|-----------------| 
|-----------------------------|-----4---3-------| 
|-----------------------------|-5---4---3---3---| 
|-----------------------------|-5---2---1---3---| 
|-----------------------------|-3-----------1---| 

  E  E  S S S S E  E  S S S S   E  E  S S S S E  E  S S S S  
|-----------------------------|-----------------------------| 
|-----------------------------|-----------------------------| 
|-----------------------------|-----------------------------| 
|-----------------------------|-----------------------------| 
|-----------------------------|-----------------------------| 
|-6--0--0-0-0-0-3--0--0-0-0-0-|-3--0--0-0-0-0-5--3--0-0-0-0-| 
|    -  - - - -    -  - - - -      -  - - - -       - - - - 
| E  (Q.)       (H)             (W) 
|-----------------------------|-----------------------------| 
|-----------------------------|-----------------------------| 
|-3---------------------------|-----------------------------| 
|-3---------------------------|-----------------------------| 
|-1---------------------------|-----------------------------| 
|-----------------------------|-----------------------------| 

______________________________________________________________________ 
|1. 
| S S S S S S S S S S S S S S S S   S S S S S S S S S S S S S S S S 
|---------------------------------|-----------------------------------| 
|---------------------------------|---------------------------------o-| 
|---------------------------------|-----------------------------------| 
|---------------------------------|-----------------------------------| 
|---------5-5-5-5-4-4-4-4---------|-4-4-4-4-------------------------o-| 
|-6-6-6-6-----------------5-5-5-5-|---------6-6-6-6-3-3-3-3-5-5-5-5---| 
| - - - - - - - - - - - - - - - -   - - - - - - - - - - - - - - - -  
| (W)                               (W) 
|---------------------------------|-----------------------------------| 
|---------------------------------|---------------------------------o-| 
|---------------------------------|-----------------------------------| 
|---------------------------------|-----------------------------------| 
|---------------------------------|---------------------------------o-| 
|---------------------------------|-----------------------------------| 

____________________________________________________________________ 
|2. 
| S S S S S S S S S S S S S S S S   S S S S S S S S S S S S E (E) 
|---------------------------------|-------------------------------| 
|---------------------------------|-------------------------------| 
|---------------------------------|-------------------------------| 
|---------------------------------|-------------------------------| 
|-----------------1-1-1-1-2-2-2-2-|-3-3-3-3-2-2-2-2-0-0-0-0-7-----| 
|-3-3-3-3-5-5-5-5-----------------|-------------------------0-----| 
| - - - - - - - - - - - - - - - -   - - - - - - - - - - - -   
|  
| S S S S S S S S S S S S S S S S   S S S S S S S S S S S S E (E) 
|---------------------------------|-------------------------------| 
|---------------------------------|-------------------------------| 
|---------------------------------|-------------------------------| 
|---------------------------------|-------------------------------| 
|-0-0-0-0-1-1-1-1-3-3-3-3-5-5-5-5-|-6-6-6-6-5-5-5-5-3-3-3-3-0-----| 
|---------------------------------|-------------------------------| 
  - - - - - - - - - - - - - - - -   - - - - - - - - - - - -  

 Fig 2: (Both Guitars) 
    E E E S S E  E   S S E   E E E E E E E E  
|--------------------------|-----------------| 
|-o------------------------|-----------------| 
|--------------------------|-----------------| 
|--------------------------|-----------------| 
|-o-7h8p7------------------|-------5---------| 
|---------0-0-0--0--3-0-0--|-3-2-0---0-0-6-0-| 
        - - -  -    - -        -   - -   - 

  E E E S S E  E   S S E   E E E E E E E E  
|------------------------|-----------------| 
|------------------------|-----------------| 
|------------------------|-----------------| 
|------------------------|-----------------| 
|-7h8p7------------------|---5-3-0-3-2-0-2-| 
|-------0-0-0--0--3-0-0--|-0---------------| 
        - - -  -    - -    -     -     - 

  E E E S S E  E   S S E   E E E E E E E E  
|------------------------|-----------------| 
|------------------------|-----------------| 
|------------------------|-----------------| 
|------------------------|-----------------| 
|-7h8p7------------------|-------5---------| 
|-------0-0-0--0--3-0-0--|-3-2-0---0-0-6-0-| 
        - - -  -    - -        -   - -   - 

  E E E S S E  E   S S E   E  E  S S E  E  E  E  E  
|------------------------|----------------------------| 
|------------------------|--------------------------o-| 
|------------------------|----------------------------| 
|------------------------|----------------------------| 
|-7h8p7------------------|--------------------------o-| 
|-------0-0-0--0--3-0-0--|-3--3--3-3-3--3--3--2--3----| 
        - - -  -    - -    -  -  - - -  -  -  -  - 

 Fig. 3: 
  Q   S S S S E  E  S S S S   Q   S S S S E  E  S S S S 
|---------------------------|---------------------------| 
|---------------------------|---------------------------| 
|---------------------------|---------------------------| 
|-9-----------109----------|-9-----------109----------| 
|-7-----------8-7----------|-7-----------8-7----------| 
|-----0-0-0-0-------0-0-0-0-|-----0-0-0-0-------0-0-0-0-| 
|     - - - -       - - - -       - - - -       - - - -  
| E  (Q.)    (H)              (W) 
|---------------------------|---------------------------| 
|---------------------------|---------------------------| 
|---------------------------|---------------------------| 
|-2-------------------------|---------------------------| 
|-2-------------------------|---------------------------| 
|-0-------------------------|---------------------------| 

  Q   S S S S Q   S S S S   Q   Q   Q   Q 
|-------------------------|-----------------| 
|-------------------------|-----------------| 
|-------------------------|---------5---8---| 
|-9-----------9-----------|-5---7---5---8---| 
|-7-----------7-----------|-5---7---3---6---| 
|-----0-0-0-0-----0-0-0-0-|-3---5-----------| 
|     - - - -     - - - -  
| (W)                       Q   Q   Q   Q 
|-------------------------|-----------------| 
|-------------------------|-----------------| 
|-------------------------|---------5---8---| 
|-------------------------|-5---7---5---8---| 
|-------------------------|-5---7---3---6---| 
|-------------------------|-3---5-----------| 

Verse: (Both guitars) 
    Q   S S S S E  E  S S S S   Q   S S S S E  E  S S S S  
|-----------------------------|---------------------------| 
|-o---------------------------|---------------------------| 
|-----------------------------|---------------------------| 
|---7-----------8--7----------|-7-----------8--7----------| 
|-o-5---5-5-5-5-5--5--5-5-5-5-|-5---5-5-5-5-5--5--5-5-5-5-| 
|-----------------------------|---------------------------| 
        - - - -       - - - -       - - - -       - - - -  

  E  S S S S E  S S S S E  S S   S S E  S S S S E  E  Q 
|------------------------------|--------------------------| 
|------------------------------|--------------------------| 
|------------------------------|--------------------------| 
|------------------------------|--------------------------| 
|-8----------7----------8------|-----7--------------------| 
|----6-6-6-6----6-6-6-6----6-6-|-6-6----6-6-6-6-8--6--5---| 
     - - - -    - - - -    - -   - -    - - - -  

  Q   S S S S E  E  S S S S   Q   S S S S E  E  S S S S  
|---------------------------|---------------------------| 
|---------------------------|---------------------------| 
|---------------------------|---------------------------| 
|-7-----------8--7----------|-7-----------8--7----------| 
|-5---5-5-5-5-5--5--5-5-5-5-|-5---5-5-5-5-5--5--5-5-5-5-| 
|---------------------------|---------------------------| 
      - - - -       - - - -       - - - -       - - - -  

  E  S S S S E  S S S S E  S S   S S E  S S S S E  E  Q 
|------------------------------|---------------------------| 
|------------------------------|-------------------------o-| 
|------------------------------|---------------------------| 
|------------------------------|---------------------------| 
|-8----------7----------8------|-----7----------------3--o-| 
|----6-6-6-6----6-6-6-6----6-6-|-6-6----6-6-6-6-3--5-------| 
     - - - -    - - - -    - -   - -    - - - -  

Pre Chorus: 
  S S S S S S S S S S S S S S S S   S S S S S S S S S S S S S S S S  
|---------------------------------|---------------------------------| 
|---------------------------------|---------------------------------| 
|---------------------------------|---------------------------------| 
|---------------------------------|---------------------------------| 
|-2-2-2-2-2-2-2-2-3-3-2-2-3-3-3-3-|-5-5-5-5-5-5-5-5-5-5-5-5-5-5-5-5-| 
|---------------------------------|---------------------------------| 
| - - - - - - - - - - - - - - - -   - - - - - - - - - - - - - - - - 
| 
| S S S S S S S S S S S S S S S S   S S S S S S S S S S S S S S S S  
|---------------------------------|---------------------------------| 
|---------------------------------|---------------------------------| 
|---------------------------------|---------------------------------| 
|---------------------------------|-5-5-5-5-5-5-5-5-5-5-5-5-5-5-5-5-| 
|-2-2-2-2-2-2-2-2-3-3-2-2-3-3-3-3-|---------------------------------| 
|---------------------------------|---------------------------------| 
  - - - - - - - - - - - - - - - -   - - - - - - - - - - - - - - - - 
            
  S S S S S S S S S S S S S S S S   S S S S S S S S S S S S S S S S  
|---------------------------------|---------------------------------| 
|---------------------------------|---------------------------------| 
|---------------------------------|---------------------------------| 
|---------------------------------|---------------------------------| 
|-2-2-2-2-2-2-2-2-3-3-2-2-3-3-3-3-|-7-7-7-7-7-7-7-7-7-7-7-7-7-7-7-7-| 
|---------------------------------|---------------------------------| 
| - - - - - - - - - - - - - - - -   - - - - - - - - - - - - - - - - 
| 
| S S S S S S S S S S S S S S S S   S S S S S S S S S S S S S S S S  
|---------------------------------|---------------------------------| 
|---------------------------------|---------------------------------| 
|---------------------------------|---------------------------------| 
|---------------------------------|-9-9-9-9-9-9-9-9-9-9-9-9-9-9-9-9-| 
|-2-2-2-2-2-2-2-2-3-3-2-2-3-3-3-3-|---------------------------------| 
|---------------------------------|---------------------------------| 
  - - - - - - - - - - - - - - - -   - - - - - - - - - - - - - - - - 

  S S S S S S S S S S S S S S S S   S S S S S S S S S S S S S S S S  
|---------------------------------|---------------------------------| 
|---------------------------------|---------------------------------| 
|---------------------------------|---------------------------------| 
|---------------------------------|---------------------------------| 
|-2-2-2-2-2-2-2-2-3-3-2-2-3-3-3-3-|-5-5-5-5-5-5-5-5-5-5-5-5-5-5-5-5-| 
|---------------------------------|---------------------------------| 
| - - - - - - - - - - - - - - - -   - - - - - - - - - - - - - - - - 
| 
| S S S S S S S S S S S S S S S S   S S S S S S S S S S S S S S S S  
|---------------------------------|---------------------------------| 
|---------------------------------|---------------------------------| 
|---------------------------------|---------------------------------| 
|---------------------------------|-5-5-5-5-5-5-5-5-5-5-5-5-5-5-5-5-| 
|-2-2-2-2-2-2-2-2-3-3-2-2-3-3-3-3-|---------------------------------| 
|---------------------------------|---------------------------------| 
  - - - - - - - - - - - - - - - -   - - - - - - - - - - - - - - - - 

  S S S S S S S S S S S S S S S S   Q   Q   Q   E  E 
|---------------------------------|-------------------| 
|---------------------------------|-------------------| 
|---------------------------------|-9---7-------------| 
|---------------------------------|-9---7---9---5/-7--| 
|-2-2-2-2-2-2-2-2-3-3-2-2-3-3-3-3-|-7---5---9---5/-7--| 
|---------------------------------|---------7---3/-5--| 
| - - - - - - - - - - - - - - - -   
| 
| S S S S S S S S S S S S S S S S   Q   Q   Q   E  E 
|---------------------------------|-------------------| 
|---------------------------------|-------------------| 
|---------------------------------|-9---7-------------| 
|---------------------------------|-9---7---9---5/-7--| 
|-2-2-2-2-2-2-2-2-3-3-2-2-3-3-3-3-|-7---5---9---5/-7--| 
|---------------------------------|---------7---3/-5--| 
  - - - - - - - - - - - - - - - - 

Chorus: (Both Guitars) 
   E  E  S S S S E  E  S S S S   E  E  S S S S E  E  S S S S  
|-------------------------------|-----------------------------| 
|-o-----------------------------|-----------------------------| 
|-------------------------------|-----------------------------| 
|-------------------------------|-----------------------------| 
|-o-----------------------------|-----------------------------| 
|---6--0--0-0-0-0-3--0--0-0-0-0-|-3--0--0-0-0-0-5--3--0-0-0-0-| 
       -  - - - -    -  - - - -      -  - - - -       - - - - 

  E  E  S S S S E  E  S S S S   Q   Q   Q   Q 
|-----------------------------|-----------------| 
|-----------------------------|-----------------| 
|-----------------------------|-----4---3-------| 
|-----------------------------|-5---4---3---3---| 
|-----------------------------|-5---2---1---3---| 
|-5--0--0-0-0-0-6--3--0-0-0-0-|-3-----------1---| 
     -  - - - -       - - - -  

  E  E  S S S S E  E  S S S S   E  E  S S S S E  E  S S S S  
|-----------------------------|-----------------------------| 
|-----------------------------|-----------------------------| 
|-----------------------------|-----------------------------| 
|-----------------------------|-----------------------------| 
|-----------------------------|-----------------------------| 
|-6--0--0-0-0-0-3--0--0-0-0-0-|-3--0--0-0-0-0-5--3--0-0-0-0-| 
     -  - - - -    -  - - - -      -  - - - -       - - - - 
______________________________________________________________________ 
|1. 
| S S S S S S S S S S S S S S S S   S S S S S S S S S S S S S S S S 
|---------------------------------|-----------------------------------| 
|---------------------------------|---------------------------------o-| 
|---------------------------------|-----------------------------------| 
|---------------------------------|-----------------------------------| 
|---------5-5-5-5-4-4-4-4---------|-4-4-4-4-------------------------o-| 
|-6-6-6-6-----------------5-5-5-5-|---------6-6-6-6-3-3-3-3-5-5-5-5---| 
  - - - - - - - - - - - - - - - -   - - - - - - - - - - - - - - - - 

____________________________________________________________________ 
|2. 
| S S S S S S S S S S S S S S S S   S S S S S S S S S S S S E (E) 
|---------------------------------|-------------------------------| 
|---------------------------------|-------------------------------| 
|---------------------------------|-------------------------------| 
|---------------------------------|-------------------------------| 
|-----------------1-1-1-1-2-2-2-2-|-3-3-3-3-2-2-2-2-0-0-0-0-7-----| 
|-3-3-3-3-5-5-5-5-----------------|-------------------------0-----| 
| - - - - - - - - - - - - - - - -   - - - - - - - - - - - -   
|  
| S S S S S S S S S S S S S S S S   S S S S S S S S S S S S E (E) 
|---------------------------------|-------------------------------| 
|---------------------------------|-------------------------------| 
|---------------------------------|-------------------------------| 
|---------------------------------|-------------------------------| 
|-0-0-0-0-1-1-1-1-3-3-3-3-5-5-5-5-|-6-6-6-6-5-5-5-5-3-3-3-3-0-----| 
|---------------------------------|-------------------------------| 
  - - - - - - - - - - - - - - - -   - - - - - - - - - - - -  

Solo 1: (Backing = Intro Fig. 2) 

  E   E   S  S  E   E   E   S  S  E 
|-17----------------17----------------| 
|-----17--17-18-17------17--15-17-15--| 
|-------------------------------------| 
|-------------------------------------| 
|-------------------------------------| 
|-------------------------------------| 

  E   E   S  S  E   E   E   S  S  E 
|-17----------------17----------------| 
|-----17--13-15-13------15--13-15-13--| 
|-------------------------------------| 
|-------------------------------------| 
|-------------------------------------| 
|-------------------------------------| 

  E   E   S  S  E   E   E   S  S  E 
|-17----------------17----------------| 
|-----17--15-17-15------17--17-18-17--| 
|-------------------------------------| 
|-------------------------------------| 
|-------------------------------------| 
|-------------------------------------| 

  S  S  S  S  E   E   H 
|-19-19-19-19-19--20--19b21-----------| 
|-------------------------------------| 
|-------------------------------------| 
|-------------------------------------| 
|-------------------------------------| 
|-------------------------------------| 

Don't know the rest of solo 

(Repeat Verse, Pre Chorus, Chorus) 

Interlude: (Both Guitars) 
  W              +W             +W             +W 
|--------------|--------------|--------------|--------------| 
|--------------|--------------|--------------|--------------| 
|--------------|--------------|--------------|--------------| 
|-2------------|-(2)----------|-(2)----------|-(2)----------| 
|-2------------|-(2)----------|-(2)----------|-(2)----------| 
|-0------------|-(0)----------|-(0)----------|-(0)----------| 

 Fig.1: 
  +W 
|--------------------------| 
|--------------------------| 
|--------------------------| 
|-(2)----------------------| 
|-(2)----------------------| 
|-(0)----------------------| 
| 
| E  E  S S E  E  E  E  E    x3 
|--------------------------| 
|--------------------------| 
|--------------------------| 
|-5------------6--6--6--6--| 
|-7------------8--8--8--8--| 
|----0--0-0-0--------------| 
     -  - - - 

  +W 
|--------------------------| 
|--------------------------| 
|--------------------------| 
|-(2)----------------------| 
|-(2)----------------------| 
|-(0)----------------------| 
| 
| E  E  S S E  E  E  E  E 
|--------------------------| 
|--------------------------| 
|--------------------------| 
|-5------------------------| 
|-7------------7-----5-----| 
|----0--0-0-0-----8-----7--| 
     -  - - - 

  W 
|--------------------------| 
|--------------------------| 
|--------------------------| 
|-2------------------------| 
|-2------------------------| 
|-0------------------------| 
| 
| E  E  S S E  E  E  E  E     
|--------------------------| 
|--------------------------| 
|--------------------------| 
|-5------------6--6--6--6--| 
|-7------------8--8--8--8--| 
|----0--0-0-0--------------| 
     -  - - - 

  +W 
|--------------------------| 
|--------------------------| 
|--------------------------| 
|-(2)----------------------| 
|-(2)----------------------| 
|-(0)----------------------| 
| 
| E  E  S S E  E  E  E  E    x2 
|--------------------------| 
|--------------------------| 
|--------------------------| 
|-5------------6--6--6--6--| 
|-7------------8--8--8--8--| 
|----0--0-0-0--------------| 
     -  - - - 

  E  E E  E E E E E   
|-------------------| 
|-------------------| 
|-------------------| 
|-------------------| 
|-12-9-10-7-9-5-4-7-| 
|-------------------| 
| 
| E  E E E E E E E   
|-------------------| 
|-------------------| 
|-------------------| 
|-10-7-8-5-7-3-2-5--| 
|-------------------| 
|-------------------| 

 Fig.2: 
  E  E  S S E  E  E  E  E 
|--------------------------| 
|--------------------------| 
|--------------------------| 
|-9------------10-10 10-10-| 
|-7------------8--8--8--8--| 
|-7--7--7-7-7--8--8--8--8--| 
|    -  - - - 
| E  E  S S E  E  E  E  E    x3 
|--------------------------| 
|--------------------------| 
|--------------------------| 
|-5------------6--6--6--6--| 
|-7------------8--8--8--8--| 
|----0--0-0-0--------------| 
     -  - - - 

  E  E  S S E  E  E  E  E 
|--------------------------| 
|--------------------------| 
|--------------------------| 
|-9------------------------| 
|-7------------7-----5-----| 
|-7--7--7-7-7-----8-----7--| 
|    -  - - - 
| E  E  S S E  E  E  E  E 
|--------------------------| 
|--------------------------| 
|--------------------------| 
|-5------------------------| 
|-7------------7-----5-----| 
|----0--0-0-0-----8-----7--| 
     -  - - - 

  E  E  S S E  E  E  E  E 
|--------------------------| 
|--------------------------| 
|--------------------------| 
|-9------------10-10 10-10-| 
|-7------------8--8--8--8--| 
|-7--7--7-7-7--8--8--8--8--| 
|    -  - - - 
| E  E  S S E  E  E  E  E    x3 
|--------------------------| 
|--------------------------| 
|--------------------------| 
|-5------------6--6--6--6--| 
|-7------------8--8--8--8--| 
|----0--0-0-0--------------| 
     -  - - - 

  E  E E  E E E E E   
|-------------------| 
|-------------------| 
|-------------------| 
|-------------------| 
|-12-9-10-7-9-5-4-7-| 
|-------------------| 
| 
| E  E E E E E E E   
|-------------------| 
|-------------------| 
|-------------------| 
|-10-7-8-5-7-3-2-5--| 
|-------------------| 
|-------------------| 

 Fig.3: (Both Guitars) 
    E  E  S S E  E  E  E  E    E  E  S S E  E  E  S S E 
|----------------------------|---------------------------| 
|-o--------------------------|---------------------------| 
|----------------------------|---------------------------| 
|---9------------10-10-10-10-|-9-------------------------| 
|-o-7------------8--8--8--8--|-7-------------------------| 
|---7--0--0-0-0--8--8--8--8--|-7--0--0-0-0--0--0--0-0-0--| 
       -  - - -                   -  - - -  -  -  - - - 

  E  E  S S E  E  E  E  E    E  E  S S E  E  E  S S  E    
|--------------------------|---------------------------| 
|--------------------------|---------------------------| 
|--------------------------|---------------------------| 
|-9------------10-10-10-10-|-8--8--8-8-8--8--8--8-8-8--| 
|-7------------8--8--8--8--|-8--8--8-8-8--8--8--8-8-8--| 
|-7--0--0-0-0--8--8--8--8--|-6--6--6-6-6--6--6--6-6-6--| 
     -  - - -                -  -  - - -  -  -  - - -   

  E  E  S S E  E  E  E  E    E  E  S S E  E  E  S S E 
|--------------------------|---------------------------| 
|--------------------------|---------------------------| 
|--------------------------|---------------------------| 
|-9------------10-10-10-10-|-9-------------------------| 
|-7------------8--8--8--8--|-7-------------------------| 
|-7--0--0-0-0--8--8--8--8--|-7--0--0-0-0--0--0--0-0-0--| 
     -  - - -                   -  - - -  -  -  - - - 

  E  E  S S E  E  E  E  E    E  E  S S E  E  E  S S E    
|--------------------------|-----------------------------| 
|--------------------------|---------------------------o-| 
|--------------------------|-----------------------------| 
|-9------------10-10-10-10-|-8--8--8-8-8--7--7--5-5-5----| 
|-7------------8--8--8--8--|-8--8--8-8-8--7--7--5-5-5--o-| 
|-7--0--0-0-0--8--8--8--8--|-6--6--6-6-6--5--5--3-3-3----| 
     -  - - -                -  -  - - -  -  -  - - -  

 Fig. 4: 
  W                      H          H 
|----------------------|----------------------| 
|----------------------|----------------------| 
|----------------------|----------------------| 
|-5--------------------|-8----------7---------| 
|-5--------------------|-8----------7---------| 
|-3--------------------|-6----------5---------| 

  W                      H          H 
|----------------------|----------------------| 
|----------------------|----------------------| 
|----------------------|----------------------| 
|-3--------------------|-5----------7---------| 
|-3--------------------|-5----------7---------| 
|-1--------------------|-3----------5---------| 

  W                      H          H 
|----------------------|----------------------| 
|----------------------|----------------------| 
|----------------------|----------------------| 
|-8--------------------|-7----------5---------| 
|-8--------------------|-7----------5---------| 
|-6--------------------|-5----------3---------|     

  W                      H          H 
|----------------------|----------------------| 
|----------------------|----------------------| 
|-5--------------------|------------5---------| 
|-5--------------------|-8----------5---------| 
|-3--------------------|-8----------3---------| 
|----------------------|-6--------------------|    

Solo 2: (Backing = Interlude Fig. 3) 
  E  E  E  E  E  E  E  E    |-Q-|  E  H      +E 
|-------------------------|----------------------| 
|-------------------------|----------------------| 
|-------------------------|----------------------| 
|-6--6--6--6--7--7--7--7--|-6b7r6----------------| 
|-------------------------|--------8--7----------| 
|-------------------------|----------------------| 

  E  E  S S  E  S S  S S S S  S S   S S S S S S S S H 
|---------------------------------|------------------------------| 
|-9--9--9-10-9--8--------8--------|---------3--------------------| 
|-----------------10-7-9---10-9-7-|-5-4-2-4---5-4-5-4v-----------| 
|---------------------------------|------------------------------| 
|---------------------------------|------------------------------| 
|---------------------------------|------------------------------| 

  Q    E   Q   S S S S S S   S S S S S S S S S S S S S S S S 
|-7b8--7b8-7---4-5-4-5-4-5-|-7-5-4---4-------4---------------| 
|--------------------------|-------6---6-5-6---6-5-3-5-3-1-0-| 
|--------------------------|---------------------------------| 
|--------------------------|---------------------------------| 
|--------------------------|---------------------------------| 
|--------------------------|---------------------------------| 

  S S S S S S S S S S S S S S S S   S S S S S S S S H 
|---------------------------------|------------------------------| 
|-3-1-----------------------------|------------------------------| 
|-----4-2-1-2-4-2-1---1-----------|------------------------------| 
|-------------------3---3-2-3-4-3-|-3-2-0-2-3-0-2-0-2v-----------| 
|---------------------------------|------------------------------| 
|---------------------------------|------------------------------| 

  E   S  S  S  S  S  S  S  S  S  S  S  S  S  S 
|-12--12-12-13-12-12-12-15-12-12-12-13-12-12-12-| 
|-----------------------------------------------| 
|-----------------------------------------------| 
|-----------------------------------------------| 
|-----------------------------------------------| 
|-----------------------------------------------| 

  S  S  S  S  S  S  E   |--Q--|  |--Q--| 
|-17-12-12-12-12-13-12--8--7--8--8--7--8--| 
|-----------------------------------------| 
|-----------------------------------------| 
|-----------------------------------------| 
|-----------------------------------------| 
|-----------------------------------------| 

  Q.      Q   E  S S E 
|-8b10----8---7--7-8-7--| 
|-----------------------| 
|-----------------------| 
|-----------------------| 
|-----------------------| 
|-----------------------| 

Don't know the rest of solo 

Repeat Interlude Fig. 4 and Chorus 

Bridge: (Both Guitars) 
  
  E  S S H.          E  S S H.          E  S S H. 
|------------------|------------------|------------------| 
|------------------|------------------|------------------| 
|-9------9---------|-7------7---------|-5------5---------| 
|-9------9---------|-7------7---------|-5------5---------| 
|-7------7---------|-5--5-5-5---------|-3--3-3-3---------| 
|----0-0-----------|------------------|------------------| 
     - -                - -                - - 

  E  S S Q   Q   E  E 
|----------------------| 
|----------------------| 
|-7------7---4---5--7--| 
|-7------7---4---5--7--| 
|-5--5-5-5---2---3--5--| Bridge played 4 times. 
|----------------------| 
     - - 

Outro: (Backing = Bridge) 
    H      Q   S S E    H      Q   S S E 
|---------------------|-------------------| 
|-o-------------------|-------------------| 
|---------------------|-------------------| 
|----------5---4-5-4--|--------5---4-5-4--| 
|-o-7-----------------|-5-----------------| 
|---------------------|-------------------| 

                    ____________________ 
                    |1,2,3. 
  H      Q   S S E  | H      Q   E  E 
|-------------------|--------------------| 
|-------------------|------------------o-| 
|-------------------|--------------------| 
|--------5---4-5-4--|--------4---5--7----| 
|-3-----------------|-5----------------o-| 
|-------------------|--------------------| 

_____________________ 
|4. 
| H      E  E  E  E    W 
|--------------------|-------------------| 
|--------------------|-------------------| 
|--------------------|-------------------| 
|--------7--5--4-----|-------------------| 
|-5---------------5--|-7-----------------| 
|--------------------|-------------------| 
		  

Full key step upFull key step up
Half key step upHalf key step up
Half key step downHalf key step down
Full key step downFull key step down
hide glossary

See also:

tabs Kreator - Under The Guillotine tabs Tankard - G.A.L.O.W. tabs Kreator - Bomb Threat tabs Kreator - Death To The World tabs Kreator - Betrayer tabs Kreator - Enemy Of God
e-chords

Other versions:

tabs Kreator - Enemy Of God
auto scroll beats size up size down change color hide chords drawings
tab show chords e-chords YouTube Clip e-chords hide all tabs e-chords go to top tab

share