Kreator

No Escape

Kreator

tabs

by  VELHO

save to print version add songbook text version e-mail correct tuner
chordsukulelecavacokeyboardtabbassdrumsharmonicaflute Guitar Pro
close

there isn't a video lesson for this song

chords

No Escape

	  		First of all: 
I did NOT include any palm mutes, 100accurate timing or detailed song structure 
information. My point is: if you are familiar with the song, you won't need that 
stuff anyway. And why use this tab if you don't know the song?? ;) 

That being said here is the song, which I did my best to transcribe correctly. 
I think it is correct, but if you still notice any errors tell me. 

Intro 

guitar 1 
e------------------------------------------------------------- 
b------------------------------------------------------------- 
g------------------------------------------------------------- 
d-------5--7--3--5--3--2--------------5--7--3--5--3--2-------- 
a-5--5--------------------4~----5--5--------------------2~---- 
e-3--3--------------------------3--3-------------------------- 

guitar 2 
e------------------------------------------------------------- 
b------------------------------------------------------------- 
g------------------------------------------------------------- 
d-------8--10--6--8--6--5-------------8--10--6--8--6--5------- 
a-5--5---------------------8~---5--5---------------------6~--- 
e-3--3--------------------------3--3-------------------------- 


e--------------------------------------------------------------- 
b--------------------------------------------------------------- 
g--------------------------------------------------------------- 
d-------5--7--3--5--3--2-------------------------4----3--------- 
a-5--5--------------------5--4--2--1--------5----2----1----3---- 
e-3--3--------------------------------3--2--3--------------1---- 



main riff: 
e------------------------------------------------------------------ 
b------------------------------------------------------------------ 
g------------------------------------------------------------------ 
d------------------------------------------------------------------ 
a-----3p2h3p2---5---3---2---5-5-5-----3p2h3p2---5---3---2---3-3-3-- 
e-0-0---------0---0---0---0-3-3-3-0-0---------0---0---0---0-1-1-1-- 


guitar 1 
e---------------------------------------- 
b---------------------------------------- 
g---------------------------------------- 
d-----------------5--7--3--5--3--2------- 
a-5-5-5-5-5-5-5-5-------------------4~--- 
e-3-3-3-3-3-3-3-3------------------------ 

guitar 2 
e---------------------------------------- 
b---------------------------------------- 
g---------------------------------------- 
d-----------------8--10--6--8--6--5------ 
a-5-5-5-5-5-5-5-5--------------------8~-- 
e-3-3-3-3-3-3-3-3------------------------ 


"Victim of your drives!" 
e----------------------------------|------------------------ 
b----------------------------------|------------------------ 
g-----------------2-------2--------|------------------------ 
d-2-------2-------1-1-1-1-1-1-1-1--|------------------------ 
a-0-0-0-0-0-0-0-0------------------|-5-5-5-5-5-5-5-5-5------ 
e----------------------------------|-3-3-3-3-3-3-3-3-3------ 
                                                 play 2nd time only 

"No escape!" 
e--------------------------------------------------------------------------------- 
b--------------------------------------------------------------------------------- 
g--------------------------------------------------------------------------------- 
d---7-8-----------------------------------4-------------5---4-----------------7--- 
a-8-5-6-------------------------------3---2-------------6---5-------------8---5--- 
e-6-----00-3-00-2-00-3-00-5-00-3-00-2-1-----0-00-0-00-0-------0-00-0-00-0-6------- 

"You can't control...." 
e------------------------------------------------------------- 
b------------------------------------------------------------- 
g------------------------------------------------------------- 
d-6---------4------8------------------------------------------ 
a-4---------5------6--8--7------------------------------------ 
e---------------------6--5--0-00-0-00-0-00-0-00-0-00-0-00-0--- 

"Never, there's no escape!" 
e------------------------------------------ 
b------------------------------------------ 
g------------------------------------------ 
d-----7-6------6-5------5-4-2-------------- 
a-8---5-4------4-3------3-2-0-------------- 
e-6---------------------------------------- 


The great middle part: 
e----------------------------------------------------- 
b----------------------------------------------------- 
g-------------------------------------------------8--- 
d-5tr6--------------------5tr6------------------------ 
a-------------5tr6--------------------5----6~---6----- 
e------000000------077777------000000---00----0------- 

The chords under it: 
e------------------------------------------------------------ 
b------------------------------------------------------------ 
g------------------------------------------------------------ 
d------------------------------2--------------9-------------- 
a-2--------------5-------------0--------------7-------------- 
e-0--------------3------------------------------------------- 


Under the solo: 
e----------------------------------- 
b----------------------------------- 
g----------------------------------- 
d----------------------------------- 
a-7-----------8855-7-----------8855- 
e--00000005566------00000005566----- 

"Let me live my own life..." 
e------------------ 
b------------------ 
g------------------ 
d-2-----------88--- 
a-000000005555--00- 
e------------------ 
  
"Cured you'll - never - be!" 
e------------------------- 
b------------------------- 
g------------------------- 
d------------------------- 
a-6--5----5--4----4--3---- 
e-4--3----3--2----2--1---- 


Fill after last "No escape!" 
e-------------------- 
b-------------------- 
g-------------------- 
d-8-8-7-5------------ 
a---------8-7-5-3-5-- 
e-------------------- 

The end (probably not exactly right) 
e--------------------------------------------------------------------------- 
b--------------------------------------------------------------------------- 
g--------------------------------------------------------------------------- 
d-------------5-----------7-----------9------------------------------------- 
a-2-----3h2---3---3-4-3---5---5-6-5---7---------------8-7-5-5---------2----- 
e-0---0-----3-----------3-----------5-------------------------8-7-5-5-0----- 

That's it! 
		  

See also:

tabs Kreator - Nonconformist tabs Kreator - Under The Guillotine tabs Kreator - Awakening Of The Gods tabs Tankard - G.A.L.O.W. tabs Kreator - Flag Of Hate tabs Kreator - Some Pain Will Last
e-chords

Other versions:

tabs Kreator - No Escape tabs Seremedy - No Escape tabs Angul Ablaze - No Escape tabs Coldrain - No Escape
auto scroll beats size up size down change color hide chords drawings
tab show chords e-chords YouTube Clip e-chords hide all tabs e-chords go to top tab

share