Korn

Freak On A Leash (ver. 2)

Korn

tabs Advanced advanced

by  VELHO

save to print version add songbook text version e-mail correct tuner
chordsukulelecavacokeyboardtabbassdrumsharmonicaflute Guitar Pro
close

there isn't a video lesson for this song

chords

Freak On A Leash (ver. 2)

	  		Riff I 
                 
e||--------17------||--------22---||  
B||-15--------16---||-----21------||  
G||----------------||--20---------||  
D||----------------||-------------||  
A||----------------||-------------||  
E||----------------||-------------||  
  
Riff II 

e||---------------------------------||  
B||---------------------------------||  
G||---------------------------------||  
D||--4h5p4----4----5-4----4----5-5--||  
A||--5------5------6-5--5------6-6--||  
E||--5-------------6-5---------6-6--|| 

Riff III 


e||-----------------------------------||  
B||-----------------------------------||  
G||-----------------------------------||  
D||-7-7-7-7-7-7-7-7-------------------||  
A||-7-7-7-7-7-7-7-7--7-7-7--8-8--5-5--||  
E||-5-5-5-5-5-5-5-5--7-7-7--8-8--5-5--||  
  

Riff IV 
  
e||------8-8----7h8p7h8p7h8p7-------------------------||  
B||---------------------------------------------------||  
G||---------------------------------------------------||  
D||---------------------------------------------------||  
A||---------------------------------------------------||  
E||-7-7-------7---------------------------------------||  

Riff V 

e||--------------------------------||  
B||--------------------------------||  
G||---------_______----------------||  
D||----9-10-11-12- |---9-10-9-10-9-||  
A||----9-10-11-12--|3x-9-10-9-10-9-||  
E||----7--8--9-10--|---7--8-7--8-7-||  
            _______| 

Riff VII 
  
e||-----------------------------------||  
B||-----------------------------------||  
G||-----------------------------------||  
D||-7-7-7-7-7-7-7-7-------------------||  
A||-7-7-7-7-7-7-7-7--7-7-7--8-8--5-5--||  
E||-5-5-5-5-5-5-5-5--7-7-7--8-8--5-5--||  
  
  
Riff VIII  
       
e||--5---------/17----5---|---------6-----1--||  
B||-----------------------|------------------||  
G||-----------------------|------------------||  
D||-----------------------|------------------||  
A||-----------------------|------------------||  
E||-----------------------|------------------||  

 Ordem dos riffs junto com a música 
  
Intro - Riff I (5x)  
  
Riff I (2x)  
Something takes a part of me.  
Something lost and never seen.  
  
Riff I (7x) 
Everytime I start to believe,  
Something's raped and taken from me... from me  
Life's got to always be messing with me (You wanna see the light)  
Can't they chill and let me be free     (So do I)  
Can't I take away all this pain         (You wanna see the light) 
I try to every night, all in vain... in vain  
  
Riff II (3x)  
Sometimes I cannot take this place.  
Sometimes it's my life I can't taste.  
Sometimes I cannot feel my face.  
  
Riff II (1x... mas não sem faz o riff inteiro) 
You'll never see fall from grace  
  
Riff III (4x) 
Something takes a part of me.  
You and I were meant to be.  
A cheap fuck for me to lay  
Something takes a... 
Part of me (quando ele fala essa frase não tem guitarra) 
  
Riff I (4x)  
Feeling like a freak on a leash.     (You wanna see the light)  
Feeling like I have no release.      (So do I)  
How many times have I felt diseased? (You wanna see the light)  
Nothing in my life is free... is free  
  

Riff II (3x)  
Sometimes I cannot take this place.  
Sometimes it's my life I can't taste.  
Sometimes I cannot feel my face.  
  
Riff II (1x... mas não se faz o riff inteiro) 
You'll never see fall from grace  
  
Riff III (4x) 
Something takes a part of me.  
You and I were meant to be.  
A cheap fuck for me to lay  
Something takes a...  
Part of me. (quando ele fala essa frase não tem guitarra)  
  
Boom na da mmm dum na ema  
Da boom na da mmm dum na ema  
Da boom na da mmm dum na ema  
Da boom na da mmm dum na ema  
  
Riff IV (12x)  
Da boom na da mmm dum na ema  
  
GO!  
  
Riff V  (3x)  
Riff VI (1x)  
  
Riff V (3x)  
So...    fight! something on the...  
Fight... some things they fight  
So...    something on the...  
  
Riff VI (1x)  
Fight... some things they fight  
  
Riff V (3x) 
Fight... something of the  
No...    some things they fight  
SO...    something of the...  

Riff VI (1x)  
Fight... some things they fight  
  
Riff VII (4X)  
Something takes a part of me.  
You and I were meant to be.  
A cheap fuck for me to lay  
Something takes a part of me.  
  
Riff VII e Riff VIII (4x) 
Part of me...  
Part of me...  
Part of me...  
Oh...  

VELHO (BANDA VM's) 

		  

auto scroll beats size up size down change color hide chords drawings
tab show chords e-chords YouTube Clip e-chords hide all tabs e-chords go to top tab

share