Kittie

Spit

Kittie

tabs

save to print version add songbook text version e-mail correct tuner
chordsukulelecavacokeyboardtabbassdrumsharmonicaflute Guitar Pro
close

there isn't a video lesson for this song

chords

Spit

	  		 
Tuning:  
  
6=C  3=F  
5=G  2=A  
4=C  1=D  
  
  
  
Intro  
Guitar 1                       8 Both Guitars                 
d|-----------------------------|-------------|-----------------------------------|  
A|-----------------------------|-------------|-----------------------------------|  
F|-----------------------------|-------------|-----------------------------------|  
C|-----------------------------|--0--0--0----|-----------------------------------|  
G|-----------------------------|--0--0--0----|-----------------------------------|  
C|-0-2-1-0-1-2-0-2-0-2-0-1-0-2-|--0--0--0----|-0-2-1-0-1-2-0-2-0-2-0-1-0-2-------|  
                                  PM.....  
Verse  
Both Guitars                       3  
d|---------------------------------|-------------------------------------------|  
A|---------------------------------|-------------------------------------------|  
F|---------------------------------|-------------------------------------------|  
C|-2-2---2-2---2-2---2-2---2--0--1-|-------------------------------------------|  
G|-2-2---2-2---2-2---2-2---2--0--1-|-------------------------------------------|  
C|-2-2---2-2---2-2---2-2---2--0--1-|-------------------------------------------|  
  pm........................  
  
Chorus:   
Both Guitars  
d|---------------------------------------------------------------------------|  
A|---------------------------------------------------------------------------|  
F|---------------------------------------------------------------------------|  
C|---------------------------------------------------------------------------|  
G|--0-2-1-0-1-2-0-2-0-2-0-1-0-2------------------------------------------------------------|  
C|--0-2-1-0-1-2-0-2-0-2-0-1-0-2----------------------------------------------|  
                   
Bridge:                                            
Guitar One               2  
d|-----------------------|----------------------------------------------------|  
A|-----------------------|----------------------------------------------------|  
F|-----------------------|----------------------------------------------------|  
C|-----------------------|----------------------------------------------------|  
G|-----------------------|----------------------------------------------------|  
C|-0-1-0-1-0-1-0-3-3-3-3-|-0-1-0-1-0-1-0-3------------------------------------|  
   pm...................  
  
Guitar 2  
  
d|-----------------------|----------------------------------------------------|  
A|-----------------------|----------------------------------------------------|  
F|-----------------------|---------------11-11-11-11--------------------------|  
C|-----------------------|----------------------------------------------------|  
G|-----------------------|---------------9--9--9--9---------------------------|  
C|-----------------------|----------------------------------------------------|  
  
Outro:   
Both Guitars  
  
d|----------------------------------------------------------------------------|  
A|----------------------------------------------------------------------------|  
F|----------------------------------------------------------------------------|  
C|--0-1-0-1-0-1-0-3-----------------------------------------------------------|  
G|--0-1-0-1-0-1-0-3-----------------------------------------------------------|  
C|--0-1-0-1-0-1-0-3-----------------------------------------------------------|  
 
_______________________________________________________ 
Contribuição: Alexander Pimiento([email protected]) 

		  

See also:

tabs Ozzy Osbourne - Paranoid (solo) tabs Iron Maiden - Infinite Dreams tabs Judas Priest - Painkiller tabs Bruce Dickinson - Tears Of The Dragon (ver. 3) tabs Black Sabbath - Paranoid Guitar (Solo) tabs Iron Maiden - Hallowed Be Thy Name
e-chords

Other versions:

tabs Kittie - Spit tabs Sepultura - Spit tabs Slipknot - Spit It Out tabs WhiteSnake - Spit It Out tabs Slaves - Spit It Out tabs My Ticket Home - Spit Not Chewed
auto scroll beats size up size down change color hide chords drawings
tab show chords e-chords YouTube Clip e-chords hide all tabs e-chords go to top tab

share