Kittie

Immortal

Kittie

tabs

save to print version add songbook text version e-mail correct tuner
chordsukulelecavacokeyboardtabbassdrumsharmonicaflute Guitar Pro
close

there isn't a video lesson for this song

chords

Immortal

	  		 
e |-------------------------------------------------------------------| 
B |-------------------------------------------------------------------| 
G |---------------------3---2---2---2-------------------3---2---2---2-| 
D |-----2---3---3---3-------------------2---3---3---3-----------------| 
A |---0---2---2---2-------2---2---2-------2---2---2-------2---2---2---| 
E |-0-----------------0---------------0---------------0---------------| 
 
 
e |-------------------------------------------------------------------| 
B |-------------------------------------------------------------------| 
G |-------------------3---2---2---2-----------3---2---3---------------| 
D |---2---3---3---3-------------------2---3---------------------------| 
A |-----2---2---2-------2---2---2-------2---2---2---2-----------------| 
E |-0---------------0---------------0---------------------------------| 
 
 
    PM-------------| 
e |-----------------------------------| 
B |-----------------------------------| 
G |-----------------------------------|   4 Vezes 
D |-0--0-4-4--3--------3--3-----------| 
A |-0--0-4-4?-3--2-2--2--2------------| 
E |-0--0-4-4--3--0-0------------------| 
 
 
e |-----------------------------------| 
B |-----------------------------------| 
G |---------------------3---2---2---2-|   4 Vezes 
D |-----2---3---3---3-----------------| 
A |---0---2---2---2-------2---2---2---| 
E |-0-----------------0---------------| 
 
 
    PM-------------| 
e |-----------------------------------| 
B |-----------------------------------| 
G |-----------------------------------|   4 Vezes 
D |-0--0-4-4--3--------3--3-----------| 
A |-0--0-4-4?-3--2-2--2--2------------| 
E |-0--0-4-4--3--0-0------------------| 
 
 
e |---------------------------------------------------------------------| 
B |---------------------------------------------------------------------| 
G |-----5-----5---5-----5-----5---5-----5-----5---4/5/6-6---6---6---6\5-|  
D |---5-----5---5-----5-----5---5-----5-----5---5---------5---5---5-----| 
A |-3-----4---------3-----4---------3-----4-----------------------------| 
E |---------------------------------------------------------------------|      
 
          4 Vezes 
 
 
Guitarra com distorção  
 
 
    PM--|   PM-----------------| 
e |-----------------------------------|  
B |-----------------------------------| 
G |-5-5-5-5-5-8-8--7-7--6-6--5-5------|    8 Vezes 
D |-5-5-5-5-5-8-8--7-7--6-6--5-5------| 
A |-3-3-3-3-3-6-6--5-5--4-4--3-3------| 
E |-----------------------------------| 
 
 
e |-----------------------------------| 
B |-----------------------------------| 
G |-------------3-3-2-----------------| 
D |---2---3---3-----------------------| 
A |-----2---2-------------------------| 
E |-0---------------------------------| 
 
 
_______________________________________________________ 
Contribuição: Elias Oliveira Silva Junior([email protected]) 

		  

See also:

tabs Ozzy Osbourne - Paranoid (solo) tabs Iron Maiden - Infinite Dreams tabs Judas Priest - Painkiller tabs Bruce Dickinson - Tears Of The Dragon (ver. 3) tabs Black Sabbath - Paranoid Guitar (Solo) tabs Iron Maiden - Hallowed Be Thy Name
e-chords

Other versions:

tabs Kittie - Immortal tabs Kittie - Immortal (ver. 2) tabs Immortal - Immortal - Tyrants tabs Pearl Jam - Immortality tabs Disturbed - Immortalized
auto scroll beats size up size down change color hide chords drawings
tab show chords e-chords YouTube Clip e-chords hide all tabs e-chords go to top tab

share