Kittie

Charlotte

Kittie

tabs Easy easy

save to print version add songbook text version e-mail correct tuner
chordsukulelecavacokeyboardtabbassdrumsharmonicaflute Guitar Pro
close

there isn't a video lesson for this song

chords

Charlotte

	  		 
Obs.: A cifra não esta com a tablatura de cabeça para baixo como de costume. 
 
Afinação 
C G C F A D 
 
Os riffs devem ser encaixados de acordo com a musica. 
 
intro 
 
C|-0x-0x-0x-| 
G|-0x-0x-0x-| 
C|-0x-0x-0x-| 
F|----------| 
A|----------| 
D|----------| 
 
riff 1 
 
C|-0-0-0-0-4-4-4-4-| 
G|-0-0-0-0-4-4-4-4-| 
C|-0-0-0-0-4-4-4-4-| 
F|-----------------| 
A|-----------------| 
D|-----------------| 
 
riff 2 
 
C|-2-1-0-1-0-1-0-1-0-1-2-2-| 
G|-------------------------| 
C|-------------------------| 
F|-------------------------| 
A|-------------------------| 
D|-------------------------| 
 
riff 3 
 
C|----------------------5-| 
G|-5-5~~~9--9-~~~10-10--5-| 
C|-x-x~~~x--x-~~~x--x---x-| 
F|-7-7~~~11-11~~~12-12--7-| 
A|------------------------| 
D|------------------------| 
 
_______________________________________________________ 
Contribuição: Fabiano Luiz de Oliveira([email protected]) 

		  

Full key step upFull key step up
Half key step upHalf key step up
Half key step downHalf key step down
Full key step downFull key step down
hide glossary

See also:

tabs Ozzy Osbourne - Paranoid (solo) tabs Iron Maiden - Infinite Dreams tabs Judas Priest - Painkiller tabs Bruce Dickinson - Tears Of The Dragon (ver. 3) tabs Black Sabbath - Paranoid Guitar (Solo) tabs Iron Maiden - Hallowed Be Thy Name
e-chords

Other versions:

tabs Kittie - Charlotte tabs Iron Maiden - Charlotte the Harlot
auto scroll beats size up size down change color hide chords drawings
tab show chords e-chords YouTube Clip e-chords hide all tabs e-chords go to top tab

share