Kittie

Oracle

Kittie

tabs

save to print version add songbook text version e-mail correct tuner
chordsukulelecavacokeyboardtabbassdrumsharmonicaflute Guitar Pro
close

there isn't a video lesson for this song

chords

Oracle

	  		 
D|-----------------------| 
A|-----------------------| 
F|-----------------------| 
C|-2-2-1-1-1-------------| 00:00 ? 00:11 
G|-2-2-1-1-1-------------|  
C|-2-2-1-1-1-------------| 
 
D|-----------------------| 
A|-----------------------| 
F|-----------------------| 
C|-----------------------| 00:11 ? 00:21 
G|-----------------------|  
C|-2-2-1-1-1-------------| 
 
D|---------------------------------| 
A|---------------------------------| 
F|---------------------------------| 
C|-2-2-1-1-1--2-2-1-1-1------------| 00:21 ? 00:32 
G|-2-2-1-1-1--2-2-1-1-1------------|  
C|-2-2-1-1-1--2-2-1-1-1------------| 
                  . . .  
 
D|-----------------------------| 
A|-----------------------------| 
F|-----------------------------| 
C|-1-0-1-0-2-0-----------------| 00:32 ? 00:39 
G|-1-0-1-0-2-0-----------------|  
C|-1-0-1-0-2-0-----------------| 
   . . . . . . 
 
D|---------------------------------| 
A|---------------------------------| 
F|---------------------------------| 
C|-2-2-1-1-1--2-2-1-1-1------------| 00:39 ? 00:52 
G|-2-2-1-1-1--2-2-1-1-1------------|  
C|-2-2-1-1-1--2-2-1-1-1------------|  
                  . . .  
 
D|-----------------------------| 
A|-----------------------------| 
F|-----------------------------| 
C|-1-0-1-0-2-0-----------------| 00:52 ? 01:09 
G|-1-0-1-0-2-0-----------------|  
C|-1-0-1-0-2-0-----------------| 
   . . . . . .  
 
D|---------------------------------------| 
A|---------------------------------------| 
F|---------------------------------------| 
C|-------5-----4---------6-6-6-6-6-------| 01:09 ? 01:32 
G|-0-0-0-3-0-0-2-0-0-0-0-4-4-4-4-4-------|  
C|-0-0-0---0-0---0-0-0-0-----------------| 
 
D|---------------------------------| 
A|---------------------------------| 
F|---------------------------------| 
C|-2-2-1-1-1--2-2-1-1-1------------| 01:32 ? 01:50 
G|-2-2-1-1-1--2-2-1-1-1------------|  
C|-2-2-1-1-1--2-2-1-1-1------------|  
 
D|-----------------------| 
A|-----------------------| 
F|-----------------------| 
C|-----------------------| 01:50 ? 01:59 
G|-----------------------|  
C|-2-2-1-1-1-------------| 
 
D|-----------------------| 
A|-----------------------| 
F|-----------------------| 
C|-----------------------| 01:59 ? 02:00 
G|-----------------------|  
C|-2-2-------------------| 
 
 
_______________________________________________________ 
Contribuição: Tiago Muniz([email protected]) 

		  

See also:

tabs Ozzy Osbourne - Paranoid (solo) tabs Iron Maiden - Infinite Dreams tabs Judas Priest - Painkiller tabs Bruce Dickinson - Tears Of The Dragon (ver. 3) tabs Black Sabbath - Paranoid Guitar (Solo) tabs Iron Maiden - Hallowed Be Thy Name
e-chords

Other versions:

tabs Kittie - Oracle tabs Iselin Solheim - Oracle tabs Zelda - Oracle Of Ages - Lynna City (presente) tabs Zelda - Oracle Of Ages - Sadness tabs Zelda - Oracle Of Seasons - Horon Village tabs Zelda - Oracle Of Seasons - Inside The Houses
auto scroll beats size up size down change color hide chords drawings
tab show chords e-chords YouTube Clip e-chords hide all tabs e-chords go to top tab

share