Kiss (Korea)

Because I'm A Girl

Kiss (Korea)

tabs Expert expert

by  FERPAROLO

save to print version add songbook text version e-mail correct tuner
chordsukulelecavacokeyboardtabbassdrumsharmonicaflute Guitar Pro
close

there isn't a video lesson for this song

chords

Because I'm A Girl

	  		Intro: 

  G                          G         A         D 
E|-------------------------------------0-----0---2---------------|| 
B|-0-2s3-------3---3----2----3-----3-------2---------3-----------|| 
G|-------0-0-4-----------------0-4-------2---------2-------------|| 
D|-----------------------------------------------0---------------|| 
A|-----------------0----0--------------0-------------------------|| 
E|-----3---------------------3-----------------------------------|| 

  G                           
E|---------------------------------------------------------------|| 
B|-0-2s3-------3---3----2----5-------------------4-----5---------|| 
G|-------0-0-4---------------------------------------------------|| 
D|---------------------------------------------------------------|| 
A|-----------------0----0----2-------------------2-----0---------|| 
E|-----3---------------------------------------------------------|| 

Verse:x2 

  D                A                Bm               Dmaj7 
E|-2-----0------0-|-0-----0------0-|----------------|-------2----|| 
B|-----3------3---|-----2------2---|-3-----3------3-|-2---2------|| 
G|---2------2-----|---2------2-----|-----4------4---|---2-----2--|| 
D|-0--------------|----------------|---4------4-----|------------|| 
A|----------------|-0--------------|-2--------------|-0----------|| 
E|----------------|----------------|----------------|------------|| 


  G                Bm7              Bb               Bb    A 
E|----------------|----------------|----------------|------------|| 
B|-0-----3--------|-3-----3--------|-------3--------|-3----2-----|| 
G|---0-4----------|-----2----------|-----3----------|-3----2-----|| 
D|----------------|---4------------|---3------------|------------|| 
A|----------------|-2--------------|-1--------------|-1----0-----|| 
E|-3--------------|----------------|----------------|------------|| 

Chorus: 
  D                                 A                 D 
E|-2-----2------2-|-5--3-3---------|-0-----0-0-2-3-0-|-3-3-2--0--|| 
B|-----3------3---|----------------|-----2-----------|-----------|| 
G|---2------2-----|----------------|---2-------------|-----------|| 
D|-0--------------|-2--------------|-----------------|-0---------|| 
A|----------------|----------------|-0---------------|--------4--|| 
E|----------------|----------------|-----------------|-----------|| 


  Bm               G                G#                A 
E|--------------2-|-2-0-0------0---|-2-2-2-2--3------|-0---------|| 
B|-3-----3--3-5---|----------3-----|-----------------|-----------|| 
G|-----4----------|----------------|-----------------|-----------|| 
D|---4------------|----------------|-----------------|-----------|| 
A|-2--------------|----------------|-----------------|-0---------|| 
E|----------------|-3--------------|-4---------------|-----------|| 

  D                                 A                 D 
E|-2-----2------2-|-5--3-3---------|-0-----0-0-2-3-0-|-3-3-2--0--|| 
B|-----3------3---|----------------|-----2-----------|-----------|| 
G|---2------2-----|----------------|---2-------------|-----------|| 
D|-0--------------|-2--------------|-----------------|-0---------|| 
A|----------------|----------------|-0---------------|--------4--|| 
E|----------------|----------------|-----------------|-----------|| 


  Bm               G                A                 D            
E|--------------2-|-2-0-0------0---|-2---0------2----|-----------|| 
B|-3-----3--3-5---|----------3-----|-------3---------|-3---------|| 
G|-----4----------|----------------|-----------------|-----------|| 
D|---4------------|----------------|-----------------|-0---------|| 
A|-2--------------|----------------|-0---------------|-----------|| 
E|----------------|-3--------------|-----------------|-----------|| 

Repeat Verse x2 and Chorus: 

Bridge: 

(all of these are in root 6th bar chords) 
  B                A                A                 F# 
E|-7-----7-7-7--7-|-5-----5-5-5----|-5-----5-5-7-----|-2-----2---|| 
B|-----7----------|-----5----------|-----5-----------|-----2-----|| 
G|---8------------|---6------------|---6-------------|---3-------|| 
D|----------------|----------------|-----------------|-----------|| 
A|----------------|----------------|-----------------|-----------|| 
E|-7--------------|-5--------------|-5---------------|-2---------|| 

  G                G                A                 A    Bb 
E|-3-----3-3--3---|-3------3--3--3-|-5-----5-5--5----|-5---6-----|| 
B|-----3----------|-----3----------|-----5-----------|-5---6-----|| 
G|---4------------|---4------------|---6-------------|-6---7-----|| 
D|----------------|----------------|-----------------|-----------|| 
A|----------------|----------------|-----------------|-----------|| 
E|-3--------------|-3--------------|-5---------------|-5---6-----|| 

Chorus x2 
		  

Full key step upFull key step up
Half key step upHalf key step up
Half key step downHalf key step down
Full key step downFull key step down
auto scroll beats size up size down change color hide chords drawings
tab show chords e-chords YouTube Clip e-chords hide all tabs e-chords go to top tab

share