Spitz

Tsumetai Hoho

Spitz

tabs nolevel nolevel

by  CARLLUZ

save to print version add songbook text version e-mail correct tuner
chordsukulelecavacokeyboardtabbassdrumsharmonicaflute Guitar Pro
close

there isn't a video lesson for this song

chords

Tsumetai Hoho

	  		


Intro 
E--------0--------------0--------------0--------------0----------| 
B-----------1---1-0---0----0---0----------1---1-0---0----0---0---| 
G------0------0-----0--------0-------0------0-----0--------0-----| 
D----2-----------------------------2-----------------------------| 
A--3-----------------------------3--------------2----------------| 
E-----------------------------------------------------3----0-----| 

E--------0--------------0--------------0--------------0----------| 
B-----------1---1-0---0----0---0----------1---1-0---0------------| 
G------0------0-----0--------0-------0------0-----0--------------| 
D----2-----------------------------2------------------0----------| 
A--3--------------2--------------3--------------2--------3-2-----| 
E-----------------------3----0-----------------------------------| 


Verse ("Anata no koto wo...") 
E--------0--------------0--------------0--------------------0----| 
B-----------1---1-0---0----0---0----------0---0-----1---3-----1--| 
G------0------0-----0--------0--------------0---------2---2------| 
D----2-------------------------------2------------2--------------| 
A--3-------------------------------2------------0----------------| 
E--------------------------------0-------------------------------| 

("Kodomo mitai na...") 
E--------0------------3---0-------------2-7--------------5--------| 
B-----------1---1---------------------3------7---7-----5----5---5-| 
G------0------0---2/4---4----4---4-/4----------7-----5--------5---| 
D--2---------------------------5-------------------7--------------| 
A----3------------------------------------------------------------| 
E-----------------------------------------------------------------| 

("...fukareta kimi no...") 
E--------0----------------5-3-----------0----------------0--------| 
B------1----2---2-----3-------3------------0---0-----1-----1---1--| 
G----2--------3-----4---4-------4------------0-----2---2-----2----| 
D--3--------------5-------------------2---------------------------| 
A-----------------------------------2------------0----------------| 
E---------------------------------0-------------------------------| 

("furetemita...") 
E------1-------0-------1-------3-------| 
B--3-----3-0-----0-1-----1-3-----3-----| 
G----2-------0-------2-------4---------| 
D--0-------2-------3-------5-----------| 
A--------------------------------------| 
E--------------------------------------| 

Verse Ending 1 
E--------0-------------3-----1----------------| 
B-----------1---1------------------5-----3----| 
G------0------0----2/4---1/2------------------| 
D----2-------------------------3/5---1/3------| 
A--3------------------------------------------| 
E---------------------------------------------| 

Verse Ending 2                   Verse Ending 3 (Final Ending) 
E--------0---1---0-----------    E--------0---1---0--------------| 
B------------0---1-----------    B------------0---1--------------|(end with 
G------0---0-0---0-----------    G------0---0-0---0--------------|complete 
D----2-----------------------    D----2-------0---2--------------|G7 and C 
A--3-------------------------    A--3---------2---3--------------|chords) 
E----------------------------    E------------3---0--------------| 


Chorus ("...sugite koi wa...") 
E------0-------0-------0-------0-------0-------0-------0-------0---| 
B--3-------3-------3-------3-------1-------1-------3-------3-------| 
G----4---4---4---4---4---4---4---4---2---2---2---2---4---4---4---4-| 
D--------------------------------------------------0---------------| 
A----------------------------------0-------------------------------| 
E--3---------------4-----------------------------------------------| 

("..wanai to itsushika omotteita") 
 Barre 1st fret    Barre 3rd fret 
E------1-------1-------3-------3-------0-------1---| 
B--1-------1-------3-------3-------1-------1-------| 
G----2---2---2---2---4---4---4---4---0---0---0---0-| 
D--------------------------------------------------| 
A----------------------------------3---------------| 
E--1---------------3-------------------------------| 

Chorus Ending 1           Chorus Ending 2 
E--0-----0-----0---       E--0-----0---------| 
B----1-----1-------       B----1-------1---1-| 
G------0-----0---0-       G------0-------0---| 
D------------------       D------------------| 
A------------------       A------------------| 
E------------------       E------------------| 

Chorus Cap ("Sore wa subete de...") 
For this part you mostly strum chords: 

F   G       Em   Am       F   E7(+5)  E7 

E--------0--------0---------------| 
B-----------3---3-2---------------| 
G------2------2---2---------------| 
D----2------------2---------------| 
A--0--------------0------0----2---| 
E-----------------0---------------| 
		  

Full key step upFull key step up
Half key step upHalf key step up
Half key step downHalf key step down
Full key step downFull key step down
hide glossary

See also:

tabs Yamazaki Masayoshi - One More Time, One More Chance tabs Spitz - Indigo Chiheisen tabs Hikaru Utada - Sanctuary Remix tabs Bamboo - Kailan tabs Mami Kawada - Joint tabs Akb48 - Aitakatta
e-chords

Other versions:

tabs Spitz - Tsumetai Hoho
auto scroll beats size up size down change color hide chords drawings
tab show chords e-chords YouTube Clip e-chords hide all tabs e-chords go to top tab

share with facebook