KillSwitch Engage

This Fire Burns

KillSwitch Engage

tabs Beginner beginner

by  EDSOOLIVEIRA

save to print version add songbook text version e-mail correct tuner
chordsukulelecavacokeyboardtabbassdrumsharmonicaflute Guitar Pro
close

there isn't a video lesson for this song

chords

This Fire Burns

	  		(intro) 
 
D |--------------------------------------------------------| 
A |--------------------------------------------------------| 
F |--------------------------------------------------------| 
C |------------------------------------------5-------------| 
G |------------------------------------------3-------------| 
C |-0h2-2-2-2-2-2-2-5p2-0-0----0-0-2--0-0---0-0-0-0-0-0-| 


 
D |---------------------------------------------------------| 
A |---------------------------------------------------------| 
F |---------------------------------------------------------| 
C |-------------------------5-5-----7-7---------------------| 
G |-------------------------3-3-----5-5-x-x-----------------| 
C |-0h2-2-2-2-2-2-2-5p2-0-0-----0-0---------2p0-0-0-0-0-0-0-| 


 
D |----------------------------------------------------------| 
A |----------------------------------------------------------| 
F |-------------------------9-9-----11-11--------------------| 
C |----------------------------------------------------------| 
G |-------------------------7-7-----9--9-x-x-----------------| 
C |-0h2-2-2-2-2-2-2-5p2-0-0-----0-0----------2p0-0-0-0-0-0-0-| 


 
D |------------------------0-------|---------0-------| 
A |--------------------1-------1---|-----1-------1---| 
G |----------------4-4---4---4---4-|-4-4---4---4---4-| 
C |--------------------------------|-----------------| 
G |---------0----------------------|-----------------| 
C |-0-0-0-0-0----------------------|-----------------| 


 
D |------------------|------------------|---------------------------------| 
A |-----------------o|-----------------o|---------------------------------| 
F |------------------|------------------|---------------------------------| 
C |------------------|-5-5-5-5-5-5-5-5--|---------------------------------| 
G |-2-2-2-2-2-2-2-2-o|-3-3-3-3-3-3-3-3-o|-0-0-0-0-0-0-0-0-0-0-0-----------| 
C |-2-2-2-2-2-2-2-2--|------------------|-0-0-0-0-0-0-0-0-0-0-0-5-5-5-4-4-| 


 
D |-7-------7--------|-7-------7--------|-10------10--------| 
A |-----8-------8---o|-----8-------8---o|-----8--------8---o| 
F |------------------|------------------|-------------------| 
C |---9---9---9---9--|---9---9---9---9--|---9---9----9---9--| 
G |-----------------o|-----------------o|------------------o| 
C |------------------|------------------|-------------------| 


 
D |------------------|------------------|------------------| 
A |-----------------o|-----------------o|-----------------o| 
F |------------------|------------------|------------------| 
C |------------------|-5-5-5-5-5-5-5-5--|------------------| 
G |-2-2-2-2-2-2-2-2-o|-3-3-3-3-3-3-3-3-o|-0-0-0-0-0-0-0-0-o| 
C |-2-2-2-2-2-2-2-2--|------------------|-0-0-0-0-0-0-0-0--| 


 
D |-7-------7--------|-10------10--------|-7-------7--------| 
A |-----8-------8---o|-----8--------8---o|-----8--------8--o| 
F |------------------|-------------------|------------------| 
C |---9---9---9---9--|---9---9----9---9--|---9---9---9---9--| 
G |-----------------o|------------------o|-----------------o| 


(ponte) 
 
D |---------------|--------------|-----------------| 
A |--------------o|--------------|-----------------| 
F |---------------|--------------|-----------------| 
C |----------3----|----------3---|-------1---2---1-| 
G |-3-2--2-3-3-2-o|-3-1--1-2-3-1-|-2-----1---2---1-| 
C |-3-2--2-3---2--|-3-1--1-2---1-|-2-1-1---1---1---| 
		  

Full key step upFull key step up
Half key step upHalf key step up
Half key step downHalf key step down
Full key step downFull key step down
hide glossary

See also:

tabs Fall Out Boy - Beat It tabs Bad Religion - American Jesus tabs Afi - Miss murder tabs Green Day - Holiday ( Easy Version) tabs Green Day - Time of your life (good ridance) tabs Blink 182 - Stay together for the kids (ver. 2)
e-chords

Other versions:

tabs KillSwitch Engage - This Fire Burns
auto scroll beats size up size down change color hide chords drawings
tab show chords e-chords YouTube Clip e-chords hide all tabs e-chords go to top tab

share