KillSwitch Engage

A Tribute To The Fallen

KillSwitch Engage

tabs

by  TERR_SCHMITZ

save to print version add songbook text version e-mail correct tuner
chordsukulelecavacokeyboardtabbassdrumsharmonicaflute Guitar Pro
close

there isn't a video lesson for this song

chords

A Tribute To The Fallen

	  		
D G C F A D 



B 
----------------------------------------------------------------| 
----------------------------------------------------------------| 
----------------------------------------------------------------| 
-9----------------------10-9-7-9----------------------10-9-7-9--| 
-7\----------------------8\7-5-7\----------------------8\7-5-7--| 
----0-000-000-000-000-0-----------0-000-000-000-000-0--8\7-5-7--| 
    * *** *** *** *** *           * *** *** *** *** *         


1 
--------------------------------------------------------| 
--------------------------------------------------------| 
--------------------------------------------------------| 
---------------------10-9---7-7---7-7-------------------| 
----------------------8\7---5-5---5-5---7-7---10-10-----| 
-0-000-000-000-000-0------0-----0-----0-5-5-0--8--8-0---| 
 * *** *** *** *** *      *     *     *     *       * 
2 
--------------------------------------------------------| 
--------------------------------------------------------| 
----------------------------9-9---9-9---9-9---12-12-----| 
---------------------10-9---7-7---7-7---7-7----x--x-----| 
----------------------8\7---5-5---5-5---7-7---10-10-----| 
-0-000-000-000-000-0------0-----0-----0-5-5-0--8--8-0---| 
 * *** *** *** *** *      *     *     *     *       * 




0:10 

B 
-----------------------------------------------------------------| 
-----------------------------------------------------------------| 
-----------------------------------------------------------------| 
-9----------------------10-9-7-9----------------------10-9-7-9-9-| 
-7\----------------------8\7-5-7\----------------------8\7-5-7-7-| 
----0-000-000-000-000-0-----------0-000-000-000-000-0--8\7-5-7-7-| 
    * *** *** *** *** *           * *** *** *** *** *         
  


1 
--------------------------------------------------------| 
--------------------------------------------------------| 
--------------------------------------------------------| 
---------------------10-9---7-7---7-7-------------------| 
----------------------8\7---5-5---5-5---7-7---10-10-----| 
-0-000-000-000-000-0------0-----0-----0-5-5-0--8--8-0---| 
 * *** *** *** *** *      *     *     *     *       * 
2 
--------------------------------------------------------| 
--------------------------------------------------------| 
----------------------------9-9---9-9---9-9---12-12-----| 
---------------------10-9---7-7---7-7---7-7----X--X-----| 
----------------------8\7---5-5---5-5---7-7---10-10-----| 
-0-000-000-000-000-0------0-----0-----0-5-5-0--8--8-0---| 
 * *** *** *** *** *      *     *     *     *       * 






0:19 

1 
-----------------------------------------------------------------| 
-----------------------------------------------------------------| 
-----------------------------------------------------------------| 
-9-9---------------------10-9-7-9-9---------------------10-12----| 
-7-7----------------------8-7-5-7-7----------------------8-10----| 
-7-7-0-0-0-0-0-0-0-0-0-0--8\7-5-7-7-0-0-0-0-0-0-0-0-0-0--8/10-0--| 
     * * * * * * * * * *            * * * * * * * * * *       * 
2 
-----------------------------------------------------------------| 
-----------------------------------------------------------------| 
-9-9----------------------------9-9------------------------------| 
-9-9---------------------10-9-7-9-9---------------------10-12----| 
-7-7----------------------8-7-5-7-7----------------------8-10----| 
-7-7-0-0-0-0-0-0-0-0-0-0--8\7-5-7-7-0-0-0-0-0-0-0-0-0-0--8/10-0--| 
     * * * * * * * * * *            * * * * * * * * * *       * 


1 
-------------------------------------------------------------| 
-------------------------------------------------------------| 
-------------------------------------------------------------| 
-9-9---------------------10-9---12-12---12-12--1010---7-7----| 
-7-7----------------------8-7---10-10---10-10---8-8---5-5----| 
-7-7-0-0-0-0-0-0-0-0-0-0--8\7-0-10-10-0-10-10-0-8-8-0-5-5-0--| 
     * * * * * * * * * *      *       *       *     *     * 
2 
-------------------------------------------------------------| 
-------------------------------------------------------------| 
-9-9---------------------10-9---12-12---12-12--1010---7-7----| 
-9-9---------------------10-9---12-12---12-12--1010---7-7----| 
-7-7----------------------8-7---10-10---10-10---8-8---5-5----| 
-7-7-0-0-0-0-0-0-0-0-0-0--8\7-0-10-10-0-10-10-0-8-8-0-5-5-0--| 
     * * * * * * * * * *      *       *       *     *     * 




1 
-----------------------------------------------------------------| 
-----------------------------------------------------------------| 
-----------------------------------------------------------------| 
-9-9---------------------10-9-7-9-9---------------------10-12----| 
-7-7----------------------8-7-5-7-7----------------------8-10----| 
-7-7-0-0-0-0-0-0-0-0-0-0--8\7-5-7-7-0-0-0-0-0-0-0-0-0-0--8/10-0--| 
     * * * * * * * * * *            * * * * * * * * * *       * 
2 
-----------------------------------------------------------------| 
-----------------------------------------------------------------| 
-9-9----------------------------9-9------------------------------| 
-9-9---------------------10-9-7-9-9---------------------10-12----| 
-7-7----------------------8-7-5-7-7----------------------8-10----| 
-7-7-0-0-0-0-0-0-0-0-0-0--8\7-5-7-7-0-0-0-0-0-0-0-0-0-0--8/10-0--| 
     * * * * * * * * * *            * * * * * * * * * *       * 


1 
----------------------------------------------------------------| 
---------------------------------------------------------9-9-9--| 
---------------------------------------------------------9-9-9--| 
-9-9---------------------10-9-7-12-12---12-12--1010-------------| 
-7-7----------------------8-7-5-10-10---10-10---8-8-/-\---------| 
-7-7-0-0-0-0-0-0-0-0-0-0--8\7-5-10-10-0-10-10-0-8-8-/-\---------| 
     * * * * * * * * * *              *       *          H H H 
2 
----------------------------------------------------------------| 
---------------------------------------------------------9-9-9--| 
-9-9----------------------------12-12---12-12--1010------9-9-9--| 
-9-9---------------------10-9-7-12-12---12-12--1010-------------| 
-7-7----------------------8-7-5-10-10---10-10---8-8-/-\---------| 
-7-7-0-0-0-0-0-0-0-0-0-0--8\7-5-10-10-0-10-10-0-8-8-/-\---------| 
     * * * * * * * * * *              *       *          H H H 







0:38 


1 
------------------------------------------------------------------| 
------------------------------------------------------------------| 
-/12--------------/12-------------/12-------------/12-------------| 
-----10-9------------10-9------------10-9------------10-9--9-10-12| 
---------10-7-0-7--------10-7-0-7--------10-7-0-7--------10-------| 
------------------------------------------------------------------| 

2 
------------------------------------------------------------------| 
------------------------------------------------------------------| 
--5--5-5-5-5-5-5-5-5-5-5-5-5-5-5--5--5-5-5-5-5-5-5-5-5-5-5-5-5-5--| 
--5--5-5-5-5-5-5-5-5-5-5-5-5-5-5--2--2-2-2-2-2-2-2-2-2-2-2-2-2-2--| 
--3--3-3-3-3-3-3-3-3-3-3-3-3-3-3--0--0-0-0-0-0-0-0-0-0-0-0-0-0-0--| 
------------------------------------------------------------------| 




1 
------------------------------------------------------------------| 
------------------------------------------------------------------| 
-/12--------------/12-------------/12-------------/12-------------| 
-----10-9------------10-9------------10-9------------10-9--9-10-12| 
---------10-7-0-7--------10-7-0-7--------10-7-0-7--------10-------| 
------------------------------------------------------------------| 

2 
----------------------------------------------------------------| 
----------------------------------------------------------------| 
---------------------------------7--7-7-7-7-7-7-7-7-7-7-7-7-7-7-| 
-2--2-2-2-2-2-2-2-2-2-2-2-2-2-2--7--7-7-7-7-7-7-7-7-7-7-7-7-7-7-| 
-2--2-2-2-2-2-2-2-2-2-2-2-2-2-2--5--5-5-5-5-5-5-5-5-5-5-5-5-5-5-| 
-0--0-0-0-0-0-0-0-0-0-0-0-0-0-0---------------------------------| 





0:48 

1 
------------------------------------------------------------------| 
------------------------------------------------------------------| 
-/12--------------/12-------------/12-------------/12-------------| 
-----10-9------------10-9------------10-9------------10-9--9-10-12| 
---------10-7-0-7--------10-7-0-7--------10-7-0-7--------10-------| 
------------------------------------------------------------------| 

2 HARMONY 
-------------------------------------------------------------------------| 
-------------------------------------------------------------------------| 
/16---------------/16---------------/16---------------/16----------------| 
---14-12-------------14-12-------------14-12-------------14-12--12-14-16-| 
--------14-10-0-10--------14-10-0-10--------14-10-0-10--------14---------| 
-------------------------------------------------------------------------| 

3 
------------------------------------------------------------------| 
------------------------------------------------------------------| 
--5--5-5-5-5-5-5-5-5-5-5-5-5-5-5--5--5-5-5-5-5-5-5-5-5-5-5-5-5-5--| 
--5--5-5-5-5-5-5-5-5-5-5-5-5-5-5--2--2-2-2-2-2-2-2-2-2-2-2-2-2-2--| 
--3--3-3-3-3-3-3-3-3-3-3-3-3-3-3--0--0-0-0-0-0-0-0-0-0-0-0-0-0-0--| 
------------------------------------------------------------------| 




1 
------------------------------------------------------------------| 
------------------------------------------------------------------| 
-/12--------------/12-------------/12-------------/12-------------| 
-----10-9------------10-9------------10-9------------10-9--9-10-12| 
---------10-7-0-7--------10-7-0-7--------10-7-0-7--------10-------| 
------------------------------------------------------------------| 

2 HARMONY 
-------------------------------------------------------------------------| 
-------------------------------------------------------------------------| 
/16---------------/16---------------/16---------------/16----------------| 
---14-12-------------14-12-------------14-12-------------14-12--12-14-16-| 
--------14-10-0-10--------14-10-0-10--------14-10-0-10--------14---------| 
-------------------------------------------------------------------------| 

3 
---------------------------------------------------| 
---------------------------------------------------| 
---------------------------------7--7-7-7-7-7-7-7--| 
-2--2-2-2-2-2-2-2-2-2-2-2-2-2-2--7--7-7-7-7-7-7-7--| 
-2--2-2-2-2-2-2-2-2-2-2-2-2-2-2--5--5-5-5-5-5-5-5--| 
-0--0-0-0-0-0-0-0-0-0-0-0-0-0-0--------------------| 







0:58 


B 
----------------------------------------------------------------| 
----------------------------------------------------------------| 
----------------------------------------------------------------| 
-9----------------------10-9-7-9----------------------10-9-7-9--| 
-7\----------------------8\7-5-7\----------------------8\7-5-7--| 
----0-0-0-0-0-0-0-0-0-0-----------0-0-0-0-0-0-0-0-0-0--8\7-5-7--| 
    * * * * * * * * * *           * * * * * * * * * *  


1 
--------------------------------------------------------| 
--------------------------------------------------------| 
--------------------------------------------------------| 
---------------------10-9---7-7---7-7-------------------| 
----------------------8\7---5-5---5-5---7-7---10-10-----| 
-0-0-0-0-0-0-0-0-0-0------0-----0-----0-5-5-0--8--8-0---| 
 * * * * * * * * * *      *     *     *     *       * 
2 
--------------------------------------------------------| 
--------------------------------------------------------| 
----------------------------9-9---9-9---9-9---12-12-----| 
---------------------10-9---7-7---7-7---7-7----X--X-----| 
----------------------8\7---5-5---5-5---7-7---10-10-----| 
-0-0-0-0-0-0-0-0-0-0------0-----0-----0-5-5-0--8--8-0---| 
 * * * * * * * * * *      *     *     *     *       * 



B 
-----------------------------------------------------------------| 
-----------------------------------------------------------------| 
-----------------------------------------------------------------| 
-9----------------------10-9-7-9----------------------10-9-7-9-9-| 
-7\----------------------8\7-5-7\----------------------8\7-5-7-7-| 
----0-000-000-000-000-0-----------0-000-000-000-000-0--8\7-5-7-7-| 
    * *** *** *** *** *           * *** *** *** *** *         



1 
----------------------------------------------------| 
----------------------------------------------------| 
----------------------------------------------------| 
---------------------10-9---7-7---7-7-------P-------| 
----------------------8\7---5-5---5-5---7-7--S------| 
-0-000-000-000-000-0------0-----0-----0-5-5---\-----| 
 * *** *** *** *** *      *     *     *      
2 
----------------------------------------------------| 
----------------------------------------------------| 
----------------------------9-9---9-9---9-9---------| 
---------------------10-9---7-7---7-7---7-7-P-------| 
----------------------8\7---5-5---5-5---7-7--S------| 
-0-000-000-000-000-0------0-----0-----0-5-5---\-----| 
 * *** *** *** *** *      *     *     *             






1:17 


1 
------------------------------------------------------------------| 
------------------------------------------------------------------| 
-/12--------------/12-------------/12-------------/12-------------| 
-----10-9------------10-9------------10-9------------10-9--9-10-12| 
---------10-7-0-7--------10-7-0-7--------10-7-0-7--------10-------| 
------------------------------------------------------------------| 

2 HARMONY 
-------------------------------------------------------------------------| 
-------------------------------------------------------------------------| 
/16---------------/16---------------/16---------------/16----------------| 
---14-12-------------14-12-------------14-12-------------14-12--12-14-16-| 
--------14-10-0-10--------14-10-0-10--------14-10-0-10--------14---------| 
-------------------------------------------------------------------------| 

3 
------------------------------------------------------------------| 
------------------------------------------------------------------| 
--5--5-5-5-5-5-5-5-5-5-5-5-5-5-5--5--5-5-5-5-5-5-5-5-5-5-5-5-5-5--| 
--5--5-5-5-5-5-5-5-5-5-5-5-5-5-5--2--2-2-2-2-2-2-2-2-2-2-2-2-2-2--| 
--3--3-3-3-3-3-3-3-3-3-3-3-3-3-3--0--0-0-0-0-0-0-0-0-0-0-0-0-0-0--| 
------------------------------------------------------------------| 





1 
------------------------------------------------------------------| 
------------------------------------------------------------------| 
-/12--------------/12-------------/12-------------/12-------------| 
-----10-9------------10-9------------10-9------------10-9--9-10-12| 
---------10-7-0-7--------10-7-0-7--------10-7-0-7--------10-------| 
------------------------------------------------------------------| 

2 HARMONY 
-------------------------------------------------------------------------| 
-------------------------------------------------------------------------| 
/16---------------/16---------------/16---------------/16----------------| 
---14-12-------------14-12-------------14-12-------------14-12--12-14-16-| 
--------14-10-0-10--------14-10-0-10--------14-10-0-10--------14---------| 
-------------------------------------------------------------------------| 

3 
----------------------------------------------------------------| 
----------------------------------------------------------------| 
---------------------------------7--7-7-7-7-7-7-7-7-7-7-7-7-7-7-| 
-2--2-2-2-2-2-2-2-2-2-2-2-2-2-2--7--7-7-7-7-7-7-7-7-7-7-7-7-7-7-| 
-2--2-2-2-2-2-2-2-2-2-2-2-2-2-2--5--5-5-5-5-5-5-5-5-5-5-5-5-5-5-| 
-0--0-0-0-0-0-0-0-0-0-0-0-0-0-0---------------------------------| 




1 
------------------------------------------------------------------| 
------------------------------------------------------------------| 
-/12--------------/12-------------/12-------------/12-------------| 
-----10-9------------10-9------------10-9------------10-9--9-10-12| 
---------10-7-0-7--------10-7-0-7--------10-7-0-7--------10-------| 
------------------------------------------------------------------| 

2 HARMONY 
-------------------------------------------------------------------------| 
-------------------------------------------------------------------------| 
/16---------------/16---------------/16---------------/16----------------| 
---14-12-------------14-12-------------14-12-------------14-12--12-14-16-| 
--------14-10-0-10--------14-10-0-10--------14-10-0-10--------14---------| 
-------------------------------------------------------------------------| 

3 
------------------------------------------------------------------| 
------------------------------------------------------------------| 
--5--5-5-5-5-5-5-5-5-5-5-5-5-5-5--5--5-5-5-5-5-5-5-5-5-5-5-5-5-5--| 
--5--5-5-5-5-5-5-5-5-5-5-5-5-5-5--2--2-2-2-2-2-2-2-2-2-2-2-2-2-2--| 
--3--3-3-3-3-3-3-3-3-3-3-3-3-3-3--0--0-0-0-0-0-0-0-0-0-0-0-0-0-0--| 
------------------------------------------------------------------| 





1 
------------------------------------------------------------------| 
------------------------------------------------------------------| 
-/12--------------/12-------------/12-------------/12-------------| 
-----10-9------------10-9------------10-9------------10-9--9-10-12| 
---------10-7-0-7--------10-7-0-7--------10-7-0-7--------10-------| 
------------------------------------------------------------------| 

2 HARMONY 
-------------------------------------------------------------------------| 
-------------------------------------------------------------------------| 
/16---------------/16---------------/16---------------/16----------------| 
---14-12-------------14-12-------------14-12-------------14-12--12-14-16-| 
--------14-10-0-10--------14-10-0-10--------14-10-0-10--------14---------| 
-------------------------------------------------------------------------| 

3 
----------------------------------------------------------------| 
----------------------------------------------------------------| 
---------------------------------9--9-9-9-9-9-9-9-9-9-9-9-9-9-9-| 
-2--2-2-2-2-2-2-2-2-2-2-2-2-2-2--x--x-x-x-x-x-x-x-x-x-x-x-x-x-x-| 
-2--2-2-2-2-2-2-2-2-2-2-2-2-2-2--7--7-7-7-7-7-7-7-7-7-7-7-7-7-7-| 
-0--0-0-0-0-0-0-0-0-0-0-0-0-0-0---------------------------------| 









1:37 



1 w/pitch shifter set for +2 octaves approx 60-70% mix 
-------------------------------------------------------| 
-------------------------------------------------------| 
-///---------------------------------------------------| 
-10----------------------------------------------------| 
-------------------------------------------------------| 
-------------------------------------------------------| 

2 
-------------------------------------------------------| 
-------------------------------------------------------| 
-----------------------------5-------------------------| 
--5--------------------------2-------------------------| 
--3--33-3-3-3--33-3-3-3--3-3-0-00-0-0-0-00-0-0-0-0-0---| 
-------------------------------------------------3-3---| 
     ** * * *  ** * * *  * *   ** * * * ** * * * * * 



1w/pitch shifter set for +2 octaves approx 60-70% mix 
---------------------------------------------------------------| 
--------------------------------------------------///----------| 
///-------------------------------///-------------11-----------| 
-9-----------------///------------12---------------------------| 
-------------------10------------------------------------------| 
---------------------------------------------------------------| 

2 
---------------------------------------------------------------| 
---------------------------------------------------------------| 
---------------------------------------------------------------| 
-----------------------------7------------------7-------7---7--| 
-2---------------------------5--55-5-5-5-55-5-5-5-5-5-5-5-5-5--| 
-0--00-0-0-0-00-0-0-0----0-0-----------------------------------| 
    ** * * * ** * * *    * *    ** * * * ** * *   * * *   * 



1w/pitch shifter set for +2 octaves approx 60-70% mix 
--------------------------------------------------------------------| 
---------------------------------------------------------///--------| 
-///-----------------------------------------------------11---------| 
-10-----------------------------------------------------------------| 
--------------------------------------------------------------------| 
--------------------------------------------------------------------| 

2 
-------------------------------------------------------| 
-------------------------------------------------------| 
-----------------------------5-------------------------| 
--5--------------------------2-------------------------| 
--3--33-3-3-3--33-3-3-3--3-3-0-00-0-0-0-00-0-0-0-0-0---| 
-------------------------------------------------3-3---| 
     ** * * *  ** * * *  * *   ** * * * ** * * * * * 



1w/pitch shifter set for +2 octaves approx 60-70% mix 
---------------------------------------------------------------| 
----///------------------------------///-----------------------| 
----12-------------------------------11---------///------------| 
----------------------///------------------------12------------| 
----------------------10---------------------------------------| 
---------------------------------------------------------------| 

2 
---------------------------------------------------------------| 
---------------------------------------------------------------| 
---------------------------------------------------------------| 
-----------------------------7------------------7--7-7-9-9-9---| 
-2---------------------------5--55-5-5-5-55-5-5-5--5-5-7-7-7\--| 
-0--00-0-0-0-00-0-0-0----0-0-----------------------------------| 
    ** * * * ** * * *    * *    ** * * * ** * *   







1:56 


-----------------------------------------------------------------| 
----------^---------------^---------------^----------------------| 
---------4-0--^----------4-0--^----------4-0--^------------------| 
---0-4-5-----4-0---0-4-5-----4-0---0-4-5-----4-0---9---7---7---5-| 
-3---------------3-------------------------------7---7---5---5---| 
---------------------------------0-------------------------------| 
 * * * *         * * * *         * * * *         *   *   *   * 

------------------------------------------------------------------| 
----------^---------------^---------------^-----------------------| 
---------4-0--^----------4-0--^----------4-0--^-------------------| 
---0-4-5-----4-0---0-4-5-----4-0---0-4-5-----4-0---10---9---7---5-| 
-3---------------3-------------------------------7----7---5---5---| 
---------------------------------0--------------------------------| 
 * * * *         * * * *         * * * *         *    *   *   * 



1 
-----------------------------------------------------------------| 
----------^---------------^---------------^----------------------| 
---------4-0--^----------4-0--^----------4-0--^------------------| 
---0-4-5-----4-0---0-4-5-----4-0---0-4-5-----4-0---9---7---7---5-| 
-3---------------3-------------------------------7---7---5---5---| 
---------------------------------0-------------------------------| 
 * * * *         * * * *         * * * *         *   *   *   * 
2 
-----------------------------------------------------------------------| 
----------^---------------^---------------^----------------------------| 
---------7-0--^----------7-0--^----------7-0--^------7-----5----5----4-| 
---0-7-9-----7-0---0-7-9-----7-0---0-7-9-----7-0-----------------------| 
-3---------------3--------------------------------7-----7----5----5----| 
---------------------------------0-------------------------------------| 
 * * * *         * * * *         * * * *          *     *    *    * 


1 
------------------------------------------------------------------| 
----------^---------------^---------------^-----------------------| 
---------4-0--^----------4-0--^----------4-0--^-------------------| 
---0-4-5-----4-0---0-4-5-----4-0---0-4-5-----4-0---10---9---7---5-| 
-3---------------3-------------------------------7----7---5---5---| 
---------------------------------0--------------------------------| 
 * * * *         * * * *         * * * *         *    *   *   * 

2 
-----------------------------------------------------------------------| 
----------^---------------^---------------^----------------------------| 
---------7-0--^----------7-0--^----------7-0--^------9-----7----5---4--| 
---0-7-9-----7-0---0-7-9-----7-0---0-7-9-----7-0-----------------------| 
-3---------------3--------------------------------7-----7----5----5----| 
---------------------------------0-------------------------------------| 
 * * * *         * * * *         * * * *          *     *    *    * 







2:15 


SOLO 

1                                                       S     S     S 
-12-8----8----------------------------------------___---P-----P-----P----| 
------12---12-8-12-8----8------------------------/   \--H-----H-----H----| 
---------------------11---11-9-11-9----9-------11-/12\7-7/9~~-9\4~~-4/7~~| 
------------------------------------12---12-10---------------------------| 
-------------------------------------------------------------------------| 
-------------------------------------------------------------------------| 

2 
-------------------------------------------------------------------------| 
-------------------------------------------------------------------------| 
-------------------------------------------------------------------------| 
-5----------------------------------------------7---------------------7--| 
-3----------------------------------------------5-------2-------------5--| 
--------------------------------------------------------0----------------| 



2:20 

1 
  ___      _      _______      _____ 
-/   \----/ \----/       \----/     \-----_------_------_---| 
8-0-5-8-13-5-8-13-5-8-0-5-8-13-5-8-0-5---/ \----/ \----/ \--| 
---------------------------------------11-5-9-11-5-9-11-5-9-| 
------------------------------------------------------------| 
------------------------------------------------------------| 
------------------------------------------------------------| 
         T      T            T          T       T      T      

2 
--------------------------------------------------------------| 
--------------------------------------------------------------| 
--------------------------------------------------------------| 
-5------------------------------------------------------------| 
-3------------------------------------------------------------| 
--------------------------------------------------------------| 




2:22 

1 
---_------_------_------_------_------_------_------_------_------| 
--/ \----/ \----/ \----/ \----/ \----/ \----/ \----/ \----/ \-----| 
11-5-9-11-5-9-11-5-9-11-4-9-11-4-9-11-4-9-11-4-9-11-4-9-11-4-9----| 
------------------------------------------------------------------| 
------------------------------------------------------------------| 
------------------------------------------------------------------| 
 T      T      T      T      T      T       T      T      T 

2 
------------------------------------------------------------------| 
------------------------------------------------------------------| 
------------------------------------------------------------------| 
-7----------------------------------------------------------------| 
-5----------------------2-----------------------------------------| 
------------------------0-----------------------------------------| 



2:24 

1 
----_------_--------------| 
---/ \----/ \----^--------| 
-12-4-9-12-4-9-12-4-------| 
--------------------------| 
----------------------\---| 
----------------------\---| 

2 
-0------------------------| 
-0------------------------| 
-0------------------------| 
-2------------------------| 
-2------------------------| 
-0------------------------| 





2:25 

1                  
-10/12~~--12-14-14/15--14---------------------------------| 
--------------------------15------------------------------| 
-----------------------------12---11---7---7\4~~~---------| 
----------------------------------------------------------| 
----------------------------------------------------------| 
----------------------------------------------------------| 

2                  
-14/15~~--15-17-17/19-17----------------------------------| 
-------------------------19-------------------------------| 
----------------------------16---14---11---11\7~~---------| 
----------------------------------------------------------| 
----------------------------------------------------------| 
----------------------------------------------------------| 

RYTHM 
----------------------------------------------------------| 
----------------------------------------------------------| 
----------------------------------------------------------| 
-5--------------------7---------------------------7-------| 
-3--------------------5-------2-------------------5-------| 
------------------------------0---------------------------| 



2:30 

1                                              )~~ 
-10/12~~--12-14-14/15---17-----19--19/20--17-19-----| 
---------------------------15-----------------------| 
----------------------------------------------------| 
----------------------------------------------------| 
----------------------------------------------------| 
----------------------------------------------------| 

2                                               )~~ 
-14/15~~--15-17-17/19---20------22--22/24--20-22----| 
---------------------------19-----------------------| 
----------------------------------------------------| 
----------------------------------------------------| 
----------------------------------------------------| 
----------------------------------------------------| 

RYTHM 
------------------------------------------------------| 
------------------------------------------------------| 
------------------------------------------------------| 
-5--------------------7---------------------9---------| 
-3--------------------5-------2-2-2---------7--/-\----| 
------------------------------0-0-0------------/-\----| 
                              * * * 




2:35 


1 
------------------------------------------------------------------| 
------------------------------------------------------------------| 
-/12--------------/12-------------/12-------------/12-------------| 
-----10-9------------10-9------------10-9------------10-9--9-10-12| 
---------10-7-0-7--------10-7-0-7--------10-7-0-7--------10-------| 
------------------------------------------------------------------| 

2 
-----------------------------------------------------------------| 
-----------------------------------------------------------------| 
-----------------------------------------------------------------| 
-5-----------------------------------7---------------------------| 
-3-----------------------------------5---------------------\-----| 
-3-----------------------------------5---------------------\-----| 
     | 



1 
------------------------------------------------------------------| 
------------------------------------------------------------------| 
-/12--------------/12-------------/12-------------/12-------------| 
-----10-9------------10-9------------10-9------------10-9--9-10-12| 
---------10-7-0-7--------10-7-0-7--------10-7-0-7--------10-------| 
------------------------------------------------------------------| 

2 HARMONY 
-------------------------------------------------------------------------| 
-------------------------------------------------------------------------| 
/16---------------/16---------------/16---------------/16----------------| 
---14-12-------------14-12-------------14-12-------------14-12--12-14-16-| 
--------14-10-0-10--------14-10-0-10--------14-10-0-10--------14---------| 
-------------------------------------------------------------------------| 

3 
----------------------------------------------------------------| 
----------------------------------------------------------------| 
---------------------------------7--7-7-7-7-7-7-7-7-7-7-7-7-7-7-| 
-2--2-2-2-2-2-2-2-2-2-2-2-2-2-2--7--7-7-7-7-7-7-7-7-7-7-7-7-7-7-| 
-2--2-2-2-2-2-2-2-2-2-2-2-2-2-2--5--5-5-5-5-5-5-5-5-5-5-5-5-5-5-| 
-0--0-0-0-0-0-0-0-0-0-0-0-0-0-0---------------------------------| 





1 
------------------------------------------------------------------| 
------------------------------------------------------------------| 
-/12--------------/12-------------/12-------------/12-------------| 
-----10-9------------10-9------------10-9------------10-9--9-10-12| 
---------10-7-0-7--------10-7-0-7--------10-7-0-7--------10-------| 
------------------------------------------------------------------| 

2 HARMONY 
-------------------------------------------------------------------------| 
-------------------------------------------------------------------------| 
/16---------------/16---------------/16---------------/16----------------| 
---14-12-------------14-12-------------14-12-------------14-12--12-14-16-| 
--------14-10-0-10--------14-10-0-10--------14-10-0-10--------14---------| 
-------------------------------------------------------------------------| 

3 
------------------------------------------------------------------| 
------------------------------------------------------------------| 
--5--5-5-5-5-5-5-5-5-5-5-5-5-5-5--5--5-5-5-5-5-5-5-5-5-5-5-5-5-5--| 
--5--5-5-5-5-5-5-5-5-5-5-5-5-5-5--2--2-2-2-2-2-2-2-2-2-2-2-2-2-2--| 
--3--3-3-3-3-3-3-3-3-3-3-3-3-3-3--0--0-0-0-0-0-0-0-0-0-0-0-0-0-0--| 
------------------------------------------------------------------| 




1 
------------------------------------------------------------------| 
------------------------------------------------------------------| 
-/12--------------/12-------------/12-------------/12-------------| 
-----10-9------------10-9------------10-9------------10-9--9-10-12| 
---------10-7-0-7--------10-7-0-7--------10-7-0-7--------10-------| 
------------------------------------------------------------------| 

2 HARMONY 
-------------------------------------------------------------------------| 
-------------------------------------------------------------------------| 
/16---------------/16---------------/16---------------/16----------------| 
---14-12-------------14-12-------------14-12-------------14-12--12-14-16-| 
--------14-10-0-10--------14-10-0-10--------14-10-0-10--------14---------| 
-------------------------------------------------------------------------| 

3 
----------------------------------------------------------------| 
----------------------------------------------------------------| 
---------------------------------9--9-9-9-9-9-9-9-9-9-9-9-9-9-9-| 
-2--2-2-2-2-2-2-2-2-2-2-2-2-2-2--x--x-x-x-x-x-x-x-x-x-x-x-x-x-x-| 
-2--2-2-2-2-2-2-2-2-2-2-2-2-2-2--7--7-7-7-7-7-7-7-7-7-7-7-7-7-7-| 
-0--0-0-0-0-0-0-0-0-0-0-0-0-0-0---------------------------------| 






pitch shifter riff repeats 


rythm fill 

-----3--------3--------3-------3-------3-------3-------------| 
--------3--------3--------3-------3------3-------3-----------| 
-------------------------------------------------------------| 
-5---------5--------------------------------7--------7---7---| 
-3---------3--------0-----------------------5--------5---5---| 
----------------------------0-------0------------------------| 
		  

Full key step upFull key step up
Half key step upHalf key step up
Half key step downHalf key step down
Full key step downFull key step down
hide glossary

See also:

tabs Fall Out Boy - Beat It tabs Bad Religion - American Jesus tabs Afi - Miss murder tabs Green Day - Holiday ( Easy Version) tabs Green Day - Time of your life (good ridance) tabs Blink 182 - Stay together for the kids (ver. 2)
e-chords

Other versions:

tabs KillSwitch Engage - A Tribute To The Fallen
auto scroll beats size up size down change color hide chords drawings
tab show chords e-chords YouTube Clip e-chords hide all tabs e-chords go to top tab

share