KillSwitch Engage

The Turning Point

KillSwitch Engage

tabs Expert expert

by  AMAN_CLAUDINO

save to print version add songbook text version e-mail correct tuner
chordsukulelecavacokeyboardtabbassdrumsharmonicaflute Guitar Pro
close

there isn't a video lesson for this song

chords

The Turning Point

	  		

Tuning: C G C F A D 



------------------------------------------------------------------| 
------------------------------------------------------------------| 
------------------------------------------------------------------| 
------------------------------------------------------------------| 
-000-000---000-0-000-000-000-000---333-3-333---111-1-111---111-1--| 
-000-000---000-0-000-000-000-000---000-0-000---000-0-000---000-0--| 
 *** ***   *** * *** *** *** ***   *** * ***   *** * ***   *** * 

------------------------------------------------------------------| 
------------------------------------------------------------------| 
------------------------------------------------------------------| 
------------------------------------------------------------------| 
-000-000---000-0-000-000-000-000---333-3-333---111-1-111---111-1--| 
-000-000---000-0-000-000-000-000---000-0-000---000-0-000---000-0--| 
 *** ***   *** * *** *** *** ***   *** * ***   *** * ***   *** * 




0:10 


1 
-----10------------------------------------------------------------------| 
8/10---10-----10-----10-----10-----10-----8-----8-----11-----11-----11---| 
------------7------7------7------7------7-----7-----7------7------7------| 
----------7------7------7------7------7-----7-----7------7------7------7-| 
-------------------------------------------------------------------------| 
-------------------------------------------------------------------------| 
          * *    * *    * *    * *    * *   * *   * *    * *    * *    * 
2 
------------------------------------------------------------------| 
------------------------------------------------------------------| 
------------------------------------------------------------------| 
------------------------------------------------------------------| 
-000-000---000-0-000-000-000-000---333-3-333---111-1-111---111-1--| 
-000-000---000-0-000-000-000-000---000-0-000---000-0-000---000-0--| 
 *** ***   *** * *** *** *** ***   *** * ***   *** * ***   *** * 



1 
-----10------------------------------------------------------------------| 
8/10---10-----10-----10-----10-----10-----8-----8-----11-----11-----ph---| 
------------7------7------7------7------7-----7-----7------7------7-10~~-| 
----------7------7------7------7------7-----7-----7------7------7--------| 
-------------------------------------------------------------------------| 
-------------------------------------------------------------------------| 
          * *    * *    * *    * *    * *   * *   * *    * *    * *     
2 
------------------------------------------------------------------| 
------------------------------------------------------------------| 
------------------------------------------------------------------| 
------------------------------------------------------------------| 
-000-000---000-0-000-000-000-000---333-3-333---111-1-111---111-1--| 
-000-000---000-0-000-000-000-000---000-0-000---000-0-000---000-0--| 
 *** ***   *** * *** *** *** ***   *** * ***   *** * ***   *** * 





0:20 

---------------------------------------------------------------------| 
---------------------------------------------------------------------| 
---------------------------------------------------------------------| 
---------------------------------------------------1-111-111-111-11--| 
---------------------------------------------------0-000-000-000-00--| 
-000-000---000-000---000-000---000-000---000-000---1-111-111-111-11--| 
 *** ***   *** ***   *** ***   *** ***   *** ***   * *** *** *** ** 

---------------------------------------------------------------------| 
---------------------------------------------------------------------| 
---------------------------------------------------------------------| 
---------------------------------------------------1-111-111-111-11--| 
---------------------------------------------------0-000-000-000-00--| 
-000-000---000-000---000-000---000-000---000-000---1-111-111-111-11--| 
 *** ***   *** ***   *** ***   *** ***   *** ***   * *** *** *** ** 




0:30 


+ pitch shifter set for 1 octave above 
1 
------------------------------------------------| 
---___________________________________________--| 
--/                                            -| 
12-0-8-12-0-12-0-8-12-0-12-0-8-12-0-12-0-8-12-0-| 
------------------------------------------------| 
------------------------------------------------| 
cont. 
-------------------------------| 
_____________________________--| 
                             \-| 
-12-0-8-12-0-13-0-12-0-8-0-10-0| 
-------------------------------| 
-------------------------------| 

2 
---------------------------------------------------------------------| 
---------------------------------------------------------------------| 
---------------------------------------------------------------------| 
---------------------------------------------------1-111-111-111-11--| 
---------------------------------------------------0-000-000-000-00--| 
-000-000---000-000---000-000---000-000---000-000---1-111-111-111-11--| 
 *** ***   *** ***   *** ***   *** ***   *** ***   * *** *** *** ** 



+ pitch shifter set for 1 octave above 
1 
------------------------------------------------| 
---___________________________________________--| 
--/                                            -| 
12-0-8-12-0-12-0-8-12-0-12-0-8-12-0-12-0-8-12-0-| 
------------------------------------------------| 
------------------------------------------------| 
cont. 
-------------------------------| 
_____________________________--| 
                             \-| 
-12-0-8-12-0-13-0-12-0-8-0-10-0| 
-------------------------------| 
-------------------------------| 

2 
----------------------------------------------------| 
----------------------------------------------------| 
----------------------------------------------------| 
----------------------------------------------------| 
----------------------------------------------------| 
-000-000---000-000---000-000---000-000---000-000----| 
 *** ***   *** ***   *** ***   *** ***   *** ***    





0:40 


L 
-----------------------------------------------------------------| 
-------------------------------------------------_---------------| 
--------------10-9------------------------------/ \--------------| 
--------------10-9------------10-101010101010--7-8-7--------10---| 
-0-------------8-7---7---10----8--8-8-8-8-8-8--------10-8-7----7-| 
-0--0-0-0-0-0------0-7-0-10-0--8--8-8-8-8-8-8--------------------| 
    * * * * *      *   *    * 
R 
---------------------------------------------------------------| 
---------------------------------------------------------------| 
--------------10-9---------------------------------------------| 
--------------10-9------------10-101010101010-10-101010101010--| 
-0-------------8-7---7---10----8--8-8-8-8-8-8--8--8-8-8-8-8-8--| 
-0--0-0-0-0-0------0-7-0-10-0--8--8-8-8-8-8-8------------------| 
    * * * * *      *   *    * 


B 
----------------------------------------------------------------| 
----------------------------------------------------------------| 
10-9-----------10-9---------------------------------------------| 
10-9-----------10-9------------10-101010101010-10-101010101010--| 
-8-7------------8-7---7---10----8--8-8-8-8-8-8--8--8-8-8-8-8-8--| 
-----0-0-0-0-0------0-7-0-10-0--8--8-8-8-8-8-8------------------| 
     * * * * *      *   *    * 



L 
-------------------------------------------------------------------| 
---------------------------------------------------_---------------| 
10-9------------10-9------------------------------/ \--------------| 
10-9------------10-9------------10-101010101010--7-8-7--------10---| 
-8-7-------------8-7---7---10----8--8-8-8-8-8-8--------10-8-7----7-| 
-----0-0-0-0-0-------0-7-0-10-0--8--8-8-8-8-8-8--------------------| 
     * * * * *       *   *    * 
R 
----------------------------------------------------------------------| 
--------------------------------------------------__------------------| 
10-9-----------10-9------------------------------/  \-----------------| 
10-9-----------10-9------------10-101010101010-10-12-10----------14---| 
-8-7------------8-7---7---10----8--8-8-8-8-8-8----------13-12-10----10| 
-----0-0-0-0-0------0-7-0-10-0--8--8-8-8-8-8-8------------------------| 
     * * * * *      *   *    * 



B 
--------------------------------------------------------0-------0-------| 
------------------------------------------------------------------------| 
10-9-----------10-9----------------------------------10-----------------| 
10-9-----------10-9------------10-101010101010--8/10-------10-12--12-10-| 
-8-7------------8-7---7---10----8--8-8-8-8-8-8--------------------------| 
-----0-0-0-0-0------0-7-0-10-0--8--8-8-8-8-8-8--------------------------| 
     * * * * *      *   *    * 





1:00 


---------------------------------------------------------------------| 
---------------------------------------------------------------------| 
---------------------------------------------------------------------| 
---------------------------------------------------1-111-111-111-11--| 
---------------------------------------------------0-000-000-000-00--| 
-000-000---000-000---000-000---000-000---000-000---1-111-111-111-11--| 
 *** ***   *** ***   *** ***   *** ***   *** ***   * *** *** *** ** 

---------------------------------------------------------------------| 
---------------------------------------------------------------------| 
---------------------------------------------------------------------| 
---------------------------------------------------1-111-111-111-11--| 
---------------------------------------------------0-000-000-000-00--| 
-000-000---000-000---000-000---000-000---000-000---1-111-111-111-11--| 
 *** ***   *** ***   *** ***   *** ***   *** ***   * *** *** *** ** 




+ pitch shifter set for 1 octave above 
1 
------------------------------------------------| 
---___________________________________________--| 
--/                                            -| 
12-0-8-12-0-12-0-8-12-0-12-0-8-12-0-12-0-8-12-0-| 
------------------------------------------------| 
------------------------------------------------| 
cont. 
-------------------------------| 
_____________________________--| 
                             \-| 
-12-0-8-12-0-13-0-12-0-8-0-10-0| 
-------------------------------| 
-------------------------------| 

2 
---------------------------------------------------------------------| 
---------------------------------------------------------------------| 
---------------------------------------------------------------------| 
---------------------------------------------------1-111-111-111-11--| 
---------------------------------------------------0-000-000-000-00--| 
-000-000---000-000---000-000---000-000---000-000---1-111-111-111-11--| 
 *** ***   *** ***   *** ***   *** ***   *** ***   * *** *** *** ** 



1 
----------------------------------------------------------| 
---___________________________________________________----| 
--/                                                   \---| 
12-0-8-12-0-12-0-8-12-0-12-0-8-12-0-12-0-8-12-0-12-0-8-12-| 
----------------------------------------------------------| 
----------------------------------------------------------| 
----------------------------------------------------------| 
2 
-----------------------------------------------------| 
-----------------------------------------------------| 
-----------------------------------------------------| 
---------------------------------------------------P-| 
----------------------------------------------------S| 
-000-000---000-000---000-000---000-000---000-000----\| 
 *** ***   *** ***   *** ***   *** ***   *** ***    




1:22 

L 
-----------------------------------------------------------------| 
-------------------------------------------------_---------------| 
--------------10-9------------------------------/ \--------------| 
--------------10-9------------10-101010101010--7-8-7--------10---| 
-0-------------8-7---7---10----8--8-8-8-8-8-8--------10-8-7----7-| 
-0--0-0-0-0-0------0-7-0-10-0--8--8-8-8-8-8-8--------------------| 
    * * * * *      *   *    * 
R 
---------------------------------------------------------------------| 
-------------------------------------------------__------------------| 
--------------10-9------------------------------/  \-----------------| 
--------------10-9------------10-101010101010-10-12-10----------14---| 
-0-------------8-7---7---10----8--8-8-8-8-8-8----------13-12-10----10| 
-0--0-0-0-0-0------0-7-0-10-0--8--8-8-8-8-8-8------------------------| 
    * * * * *      *   *    * 

B 
--------------------------------------------------------0----------| 
-------------------------------------------------------------------| 
10-9-----------10-9----------------------------------10------------| 
10-9-----------10-9------------10-101010101010--8/10-------10------| 
-8-7------------8-7---7---10----8--8-8-8-8-8-8----------------\----| 
-----0-0-0-0-0------0-7-0-10-0--8--8-8-8-8-8-8----------------\----| 
     * * * * *      *   *    * 




L 
-------------------------------------------------------------------| 
---------------------------------------------------_---------------| 
10-9------------10-9------------------------------/ \--------------| 
10-9------------10-9------------10-101010101010--7-8-7--------10---| 
-8-7-------------8-7---7---10----8--8-8-8-8-8-8--------10-8-7----7-| 
-----0-0-0-0-0-------0-7-0-10-0--8--8-8-8-8-8-8--------------------| 
     * * * * *       *   *    * 
R 
----------------------------------------------------------------------| 
--------------------------------------------------__------------------| 
10-9-----------10-9------------------------------/  \-----------------| 
10-9-----------10-9------------10-101010101010-10-12-10----------14---| 
-8-7------------8-7---7---10----8--8-8-8-8-8-8----------13-12-10----10| 
-----0-0-0-0-0------0-7-0-10-0--8--8-8-8-8-8-8------------------------| 
     * * * * *      *   *    * 


B 
--------------------------------------------------------0-------0-------| 
------------------------------------------------------------------------| 
10-9-----------10-9----------------------------------10-----------------| 
10-9-----------10-9------------10-101010101010--8/10-------10-12--------| 
-8-7------------8-7---7---10----8--8-8-8-8-8-8---------------------\----| 
-----0-0-0-0-0------0-7-0-10-0--8--8-8-8-8-8-8---------------------\----| 
     * * * * *      *   *    * 





1:42 

L 
---------------------------------------------------------------------------| 
---------------------------------------------------------------------------| 
----10---9------------------------------10---9-----------------------------| 
-------------10----------------------------------10------------------------| 
8-----------------12---8-----8-10-12-0-----------------12---8-----12-10-8--| 
8------8---8----8----8---8-8---------0------0---0----0----0---0-0----------| 
       *   *    *    *   * *                *   *    *    *   * * 
R 
---------------------------------------------------------------------------| 
---10---8--------------------------------10---8----------------------------| 
-------------9-------------------------------------9-----------------------| 
------------------10----------7-8-10--------------------10-----------10-8-7| 
8----------------------12------------0------------------------12-----------| 
8-----8---8-----8----8----8-8--------0------0----0----0----0-----0-0-------| 
      *   *     *    *    * *               *    *    *    *     * * 



L 
---------------------------------------------------------------------| 
------------------------------------------------Sph-------Sph--------| 
----10---9---------------------------------10----9~--------10----9~--| 
-------------10------------------------------------------------------| 
8-----------------12---8-----8-10-12-10--------------10--------------| 
8------8---8----8----8---8-8---------10-10----10-----10-10----10-----| 
       *   *    *    *   * *             *     *         *     * 
R 
-------------------------------------------------------------------------| 
-----10---8----------------------------------------Sph--------------Sph--| 
---------------9-----------------------------14----12~--------14----12~--| 
--------------------10----------7-8-10-----------------------------------| 
8------------------------12------------10---------------10---------------| 
8-------8---8-----8----8----8-8--------10-10----10------10-10----10------| 
        *   *     *    *    * *            *     *          *     *      



L 
---------------------------------------------------------------------------| 
---------------------------------------------------------------------------| 
----10---9------------------------------10---9-----------------------------| 
-------------10----------------------------------10------------------------| 
8-----------------12---8-----8-10-12-0-----------------12---8-----12-10-8--| 
8------8---8----8----8---8-8---------0------0---0----0----0---0-0----------| 
       *   *    *    *   * *                *   *    *    *   * * 
R 
---------------------------------------------------------------------------| 
---10---8--------------------------------10---8----------------------------| 
-------------9-------------------------------------9-----------------------| 
------------------10----------7-8-10--------------------10-----------10-8-7| 
8----------------------12------------0------------------------12-----------| 
8-----8---8-----8----8----8-8--------0------0----0----0----0-----0-0-------| 
      *   *     *    *    * *               *    *    *    *     * * 



L 
---------------------------------------------------------------------| 
------------------------------------------------ph--------------ph---| 
----10---9---------------------------------10----9~--------10----9~--| 
-------------10------------------------------------------------------| 
8-----------------12---8-----8-10-12-10--------------10--------------| 
8------8---8----8----8---8-8---------10-10----10-----10-10----10-----| 
       *   *    *    *   * *             *     *         *     * 
R 
-------------------------------------------------------------------------| 
-----10---8----------------------------------------ph---------------ph---| 
---------------9-----------------------------14----12~--------14----12~--| 
--------------------10----------7-8-10-----------------------------------| 
8------------------------12------------10---------------10---------------| 
8-------8---8-----8----8----8-8--------10-10----10------10-10----10------| 
        *   *     *    *    * *            *     *          *     *      





2:04 



SOLO 

1                                                     )~~~~~ 
ph----)(^-------------12------13-17----15----12----12---------| 
-6/10----8----8/13~~~-----13--------13----13----13------------| 
-----------10-------------------------------------------------| 
--------------------------------------------------------------| 
--------------------------------------------------------------| 
--------------------------------------------------------------| 
2 
------------------------------------------------------------------| 
------------------------------------------------------------------| 
------------------------------------------------------------------| 
-333-333---333-333---333-333-333----------------------------------| 
-111-111---111-111---111-111-111--000-000---000-000---000-000-000-| 
----------------------------------000-000---000-000---000-000-000-| 
 *** ***   *** ***   *** *** ***  *** ***   *** ***   *** *** *** 




2:09 
                                                                    )~~ 
17-13-17-13--13-17-13-17-13--13-17-13--13-17-13--13-17-13--13-17/20--| 
-----------17--------------17--------17--------17--------17----------| 
---------------------------------------------------------------------| 
---------------------------------------------------------------------| 
---------------------------------------------------------------------| 
---------------------------------------------------------------------| 
CONT. 
---)   (---------------------------| 
-17--------------------------------| 
---------19-17~~~-17\12~-12\5~~----| 
-----------------------------------| 
-----------------------------------| 
-----------------------------------| 
2 
------------------------------------------------------------------| 
------------------------------------------------------------------| 
---------------------------------------------------5-7-7-9-910-10-| 
---------------------------------555-555---555-555-X-X-X-X-X-X--X-| 
-333-333---333-333---333-333-333-333-333---333-333-3/5-5/7-7/8--8-| 
-333-333---333-333---333-333-333----------------------------------| 
 *** ***   *** ***   *** *** *** *** *** 



2:14 

1 
   ___           ___           ___      ___           ___           ___ 
  /   \    ^    /   \    ^    /   \    /   \    ^    /   \    ^    /   \ 
13-8-6-8-13-8-13-8-6-8-13-8-13-8-6-8-13-8-6-8-13-8-13-8-6-8-13-8-13-8-6-8| 
-------------------------------------------------------------------------| 
-------------------------------------------------------------------------| 
-------------------------------------------------------------------------| 
-------------------------------------------------------------------------| 
-------------------------------------------------------------------------| 
 T        T    T        T    T        T        T    T        T    T 
CONT. 
   ___           ___           ___      ___           ___           _ 
  /   \    ^    /   \    ^    /   \    /   \    ^    /   \    ^    / \ 
13-8-5-8-13-8-13-8-5-8-13-8-13-8-5-8-13-8-5-8-13-8-13-8-5-8-13-8-13-8-5--| 
-------------------------------------------------------------------------| 
-------------------------------------------------------------------------| 
-------------------------------------------------------------------------| 
-------------------------------------------------------------------------| 
-------------------------------------------------------------------------| 
 T        T    T        T    T        T        T    T        T    T 
2 
------------------------------------------------------------------| 
------------------------------------------------------------------| 
------------------------------------------------------------------| 
-333-333---333-333---333-333-333----------------------------------| 
-111-111---111-111---111-111-111--000-000---000-000---000-000-000-| 
----------------------------------000-000---000-000---000-000-000-| 
 *** ***   *** ***   *** *** ***  *** ***   *** ***   *** *** *** 



2:19 

1 
                                        )(^     )~ 
-----12121213131315151717171313131717-20---17-20-----------------------| 
/13~~------------------------------------------------------------------| 
---------------------------------------------------91010-12-12-14-14---| 
---------------------------------------------------X-X-X--X--X--X--X---| 
---------------------------------------------------7/8-8/10-10/12-12---| 
---------------------------------------------------------------------0-| 
2 
---------------------------------------------------------------------| 
---------------------------------------------------------------------| 
---------------------------------------------------5-7-7-9-910-10----| 
---------------------------------555-555---555-555-X-X-X-X-X-X--X----| 
-333-333---333-333---333-333-333-333-333---333-333-3/5-5/7-7/8--8----| 
-333-333---333-333---333-333-333-----------------------------------0-| 
 *** ***   *** ***   *** *** *** *** ***   *** *** 








L 
---------------------------------------------------------------------------| 
---------------------------------------------------------------------------| 
----10---9------------------------------10---9-----------------------------| 
-------------10----------------------------------10------------------------| 
8-----------------12---8-----8-10-12-0-----------------12---8-----12-10-8--| 
8------8---8----8----8---8-8---------0------0---0----0----0---0-0----------| 
       *   *    *    *   * *                *   *    *    *   * * 
R 
---------------------------------------------------------------------------| 
---10---8--------------------------------10---8----------------------------| 
-------------9-------------------------------------9-----------------------| 
------------------10----------7-8-10--------------------10-----------10-8-7| 
8----------------------12------------0------------------------12-----------| 
8-----8---8-----8----8----8-8--------0------0----0----0----0-----0-0-------| 
      *   *     *    *    * *               *    *    *    *     * * 


L 
---------------------------------------------------------------------| 
------------------------------------------------sph------------sph---| 
----10---9---------------------------------10----9~--------10----9~--| 
-------------10------------------------------------------------------| 
8-----------------12---8-----8-10-12-10--------------10--------------| 
8------8---8----8----8---8-8---------10-10----10-----10-10----10-----| 
       *   *    *    *   * *             *     *         *     * 
R 
-------------------------------------------------------------------------| 
-----10---8---------------------------------------sph--------------sph---| 
---------------9-----------------------------14----12~--------14----12~--| 
--------------------10----------7-8-10-----------------------------------| 
8------------------------12------------10---------------10---------------| 
8-------8---8-----8----8----8-8--------10-10----10------10-10----10------| 
        *   *     *    *    * *            *     *          *     *      





L 
---------------------------------------------------------------------------| 
---------------------------------------------------------------------------| 
----10---9------------------------------10---9-----------------------------| 
-------------10----------------------------------10------------------------| 
8-----------------12---8-----8-10-12-0-----------------12---8-----12-10-8--| 
8------8---8----8----8---8-8---------0------0---0----0----0---0-0----------| 
       *   *    *    *   * *                *   *    *    *   * * 
R 
---------------------------------------------------------------------------| 
---10---8--------------------------------10---8----------------------------| 
-------------9-------------------------------------9-----------------------| 
------------------10----------7-8-10--------------------10-----------10-8-7| 
8----------------------12------------0------------------------12-----------| 
8-----8---8-----8----8----8-8--------0------0----0----0----0-----0-0-------| 
      *   *     *    *    * *               *    *    *    *     * * 


L 
---------------------------------------------------------------------| 
-----------------------------------------------sph-------------sph---| 
----10---9---------------------------------10----9~--------10----9~--| 
-------------10------------------------------------------------------| 
8-----------------12---8-----8-10-12-10--------------10--------------| 
8------8---8----8----8---8-8---------10-10----10-----10-10----10-----| 
       *   *    *    *   * *             *     *         *     * 
R 
-------------------------------------------------------------------------| 
-----10---8----------------------------------------sph-------------sph---| 
---------------9-----------------------------14----12~--------14----12~--| 
--------------------10----------7-8-10-----------------------------------| 
8------------------------12------------10---------------10---------------| 
8-------8---8-----8----8----8-8--------10-10----10------10-10----10------| 
        *   *     *    *    * *            *     *          *     *       
		  

Full key step upFull key step up
Half key step upHalf key step up
Half key step downHalf key step down
Full key step downFull key step down
hide glossary

See also:

tabs Fall Out Boy - Beat It tabs Bad Religion - American Jesus tabs Afi - Miss murder tabs Green Day - Holiday ( Easy Version) tabs Green Day - Time of your life (good ridance) tabs Blink 182 - Stay together for the kids (ver. 2)
e-chords

Other versions:

tabs KillSwitch Engage - The Turning Point
auto scroll beats size up size down change color hide chords drawings
tab show chords e-chords YouTube Clip e-chords hide all tabs e-chords go to top tab

share