KillSwitch Engage

Beyond The Flames

KillSwitch Engage

tabs

by  ALEFFEDERICO

save to print version add songbook text version e-mail correct tuner
chordsukulelecavacokeyboardtabbassdrumsharmonicaflute Guitar Pro
close

there isn't a video lesson for this song

chords

Beyond The Flames

	  		

Tuning: C G C F A D 
 



Guitar 1 

       PM PM PM   PM PM PM    PM   PM PM    PM   PM    PM PM PM   PM 
     S T  T  S  S S  S  S   S S  S S  S     S  S S   S S  S  S  S S  S S S 
D||--------------------------------------|---------------------------------| 
A||--------------------------------------|---------------------------------| 
F||--------------------------------------|---------------------------------| 
C||-------------7----------10----9-------|-----9----14---------------3-3-3-| 
G||--0-0--0--0----0--0--0-----0----0--0--|--0--7-0--12-0--0--0--3-0--3-3-3-| 
C||--------------------------------------|---------------------------3-3-3-| 


    PM PM PM   PM PM PM    PM   PM PM    PM  PM   PM  PM 
  S T  T  S  S S  S  S   S S  S S  S     S   S  S S   S S  S  S  S  S  S  S 
--------------------------------------|-------------------------------------| 
--------------------------------------|-------------------------12-13-12--L-| 
--------------------------------------|--------12-------9----------------12-| 
-------------7----------10----9-------|-----10-------10---------------------| 
--0-0--0--0----0--0--0-----0----0--0--|--8--------8-------10-10-------------| 
--------------------------------------|-------------------------------------| 


    PM PM PM   PM PM PM    PM   PM PM    PM   PM    PM PM PM   PM 
  S T  T  S  S S  S  S   S S  S S  S     S  S S   S S  S  S  S S  S S S 
--------------------------------------|---------------------------------| 
--------------------------------------|---------------------------------| 
--------------------------------------|---------------------------------| 
-------------7----------10----9-------|-----9----14---------------3-3-3-| 
--0-0--0--0----0--0--0-----0----0--0--|--0--7-0--12-0--0--0--3-0--3-3-3-| 
--------------------------------------|---------------------------3-3-3-| 


    PM PM PM   PM PM PM    PM   PM PM    PM  PM   PM  PM 
  S T  T  S  S S  S  S   S S  S S  S     S   S  S S   S S  S  S  S  S  S  S 
--------------------------------------|-------------------------------------| 
--------------------------------------|-------------------------12-13-12--L-| 
--------------------------------------|--------12-------9----------------12-| 
-------------7----------10----9-------|-----10-------10---------------------| 
--0-0--0--0----0--0--0-----0----0--0--|--8--------8-------10-10-------------| 
--------------------------------------|-------------------------------------| 


    PM PM PM    PM PM PM    PM    PM PM    PM   PM    PM PM PM   PM 
  S T  T  S   S S  S  S   S S   S S  S     S  S S   S S  S  S  S S  S S S 
----------------------------------------|---------------------------------| 
----------------------------------------|---------------------------------| 
----------------------------------------|---------------------------------| 
-------------10----------14----12-------|-----9----14---------------3-3-3-| 
--0-0--0--0-----0--0--0-----0-----0--0--|--0--7-0--12-0--0--0--3-0--3-3-3-| 
----------------------------------------|---------------------------3-3-3-| 


    PM PM PM    PM PM PM    PM    PM PM    PM  PM   PM  PM 
  S T  T  S   S S  S  S   S S   S S  S     S   S  S S   S S  S  S  S  S  S  S 
----------------------------------------|-------------------------------------| 
----------------------------------------|-------------------------12-13-12--L-| 
----------------------------------------|--------12-------9----------------12-| 
-------------10----------14----12-------|-----10-------10---------------------| 
--0-0--0--0-----0--0--0-----0-----0--0--|--8--------8-------10-10-------------| 
----------------------------------------|-------------------------------------| 


    PM PM PM    PM PM PM    PM    PM PM    PM   PM    PM PM PM   PM 
  S T  T  S   S S  S  S   S S   S S  S     S  S S   S S  S  S  S S  S S S 
----------------------------------------|---------------------------------| 
----------------------------------------|---------------------------------| 
----------------------------------------|---------------------------------| 
-------------10----------14----12-------|-----9----14---------------3-3-3-| 
--0-0--0--0-----0--0--0-----0-----0--0--|--0--7-0--12-0--0--0--3-0--3-3-3-| 
----------------------------------------|---------------------------3-3-3-| 


    PM PM PM    PM PM PM    PM    PM PM    PM  PM   PM  PM 
  S T  T  S   S S  S  S   S S   S S  S     S   S  S S   S S  S  S  S  S  S  S 
----------------------------------------|-------------------------------------| 
----------------------------------------|-------------------------12-13-12--L-| 
----------------------------------------|--------12-------9----------------12-| 
-------------10----------14----12-------|-----10-------10---------------------| 
--0-0--0--0-----0--0--0-----0-----0--0--|--8--------8-------10-10-------------| 
----------------------------------------|-------------------------------------| 


       PM PM PM PM PM   PM               PM PM PM PM PM   PM 
  E  S S  T  T  S  S  S S  S S S    E  S S  T  T  S  S  S S  S  S  S 
---------------------------------|-----------------------------------| 
---------------------------------|-----------------------------------| 
---------------------------------|-----------------------------------| 
--0--L-0--0--0--0--0-------------|--3--L-3--3--3--3--3--7----7-10-10-| 
--0--L-0--0--0--0--0--7----7-8-8-|--3--L-3--3--3--3--3---------------| 
--0--L-0--0--0--0--0----0--------|--3--L-3--3--3--3--3----3----------| 


       PM PM PM PM    PM   PM    PM      PM    PM   PM    PM   PM 
  E  S S  T  T  S   S S  S S   S S     S S   S S  S S   S S  S S  E 
------------------------------------|--------------------------------| 
------------------------------------|--------------------------------| 
------------------------------------|--------------------------------| 
--7--L-7--7--7--7--10----9----------|-------10----9---------------5--| 
--7--L-7--7--7--7-------------10----|--7---------------10----7----5--| 
--7--L-7--7--7--7-----0----0-----0--|----0-----0----0-----0----0--5--| 


       PM PM PM PM PM   PM               PM PM PM PM PM   PM 
  E  S S  T  T  S  S  S S  S S S    E  S S  T  T  S  S  S S  S  S  S 
---------------------------------|-----------------------------------| 
---------------------------------|-----------------------------------| 
---------------------------------|-----------------------------------| 
--3--L-3--3--3--3--3--5----5-7-7-|--5--L-5--5--5--5--5--9----9-10-10-| 
--3--L-3--3--3--3--3-------------|--5--L-5--5--5--5--5---------------| 
--3--L-3--3--3--3--3----3--------|--5--L-5--5--5--5--5----5----------| 


       PM PM PM PM    PM   PM    PM      PM    PM 
  E  S S  T  T  S   S S  S S   S S     S S   S S  E  E  S   E   S 
------------------------------------|-----------------------------| 
------------------------------------|-----------------------------| 
------------------------------------|-----------------------------| 
--7--L-7--7--7--7--10----9----------|-------10----9--5--L-/12\--L-| 
--7--L-7--7--7--7-------------10----|--7-------------5--L-/12\--L-| 
--7--L-7--7--7--7-----0----0-----0--|----0-----0-----5--L-/12\--L-| 


  H        Q       Q    E  Q    E     H        Q       Q    E  Q    E 
----------------|------------------|----------------|------------------| 
----------------|------------------|----------------|------------------| 
----------------|------------------|----------------|------------------| 
--0--------L----|--L----L--2----L--|--3--------L----|--L----L--5----L--| 
--0--------L----|--L----L--2----L--|--3--------L----|--L----L--5----L--| 
--0--------L----|--L----L--2----L--|--3--------L----|--L----L--5----L--| 


  H        Q       Q    E  Q    E     H        Q       H        Q 
----------------|------------------|----------------|----------------| 
----------------|------------------|----------------|----------------| 
----------------|------------------|----------------|----------------| 
--7--------L----|--L----L--2----L--|--3--------L----|--5--------L----| 
--7--------L----|--L----L--2----L--|--3--------L----|--5--------L----| 
--7--------L----|--L----L--2----L--|--3--------L----|--5--------L----| 


    PM PM PM   PM PM PM    PM   PM PM    PM   PM    PM PM PM   PM 
  S T  T  S  S S  S  S   S S  S S  S     S  S S   S S  S  S  S S  S S S 
--------------------------------------|---------------------------------| 
--------------------------------------|---------------------------------| 
--------------------------------------|---------------------------------| 
-------------7----------10----9-------|-----9----14---------------3-3-3-| 
--0-0--0--0----0--0--0-----0----0--0--|--0--7-0--12-0--0--0--3-0--3-3-3-| 
--------------------------------------|---------------------------3-3-3-| 


    PM PM PM   PM PM PM    PM   PM PM    PM  PM   PM  PM 
  S T  T  S  S S  S  S   S S  S S  S     S   S  S S   S S  S  S  S  S  S  S 
--------------------------------------|-------------------------------------| 
--------------------------------------|-------------------------12-13-12--L-| 
--------------------------------------|--------12-------9----------------12-| 
-------------7----------10----9-------|-----10-------10---------------------| 
--0-0--0--0----0--0--0-----0----0--0--|--8--------8-------10-10-------------| 
--------------------------------------|-------------------------------------| 


    PM PM PM    PM PM PM    PM    PM PM    PM   PM    PM PM PM   PM 
  S T  T  S   S S  S  S   S S   S S  S     S  S S   S S  S  S  S S  S S S 
----------------------------------------|---------------------------------| 
----------------------------------------|---------------------------------| 
----------------------------------------|---------------------------------| 
-------------10----------14----12-------|-----9----14---------------3-3-3-| 
--0-0--0--0-----0--0--0-----0-----0--0--|--0--7-0--12-0--0--0--3-0--3-3-3-| 
----------------------------------------|---------------------------3-3-3-| 


    PM PM PM    PM PM PM    PM    PM PM    PM  PM   PM  PM 
  S T  T  S   S S  S  S   S S   S S  S     S   S  S S   S S  S  S  S  S  S  S 
----------------------------------------|-------------------------------------| 
----------------------------------------|-------------------------12-13-12--L-| 
----------------------------------------|--------12-------9----------------12-| 
-------------10----------14----12-------|-----10-------10---------------------| 
--0-0--0--0-----0--0--0-----0-----0--0--|--8--------8-------10-10-------------| 
----------------------------------------|-------------------------------------| 


       PM PM PM PM PM   PM               PM PM PM PM PM   PM 
  E  S S  T  T  S  S  S S  S S S    E  S S  T  T  S  S  S S  S S S 
---------------------------------|---------------------------------| 
---------------------------------|---------------------------------| 
---------------------------------|----------------------5----5-9-9-| 
--0--L-0--0--0--0--0--5----5-7-7-|--3--L-3--3--3--3--3-------------| 
--0--L-0--0--0--0--0-------------|--3--L-3--3--3--3--3-------------| 
--0--L-0--0--0--0--0----0--------|--3--L-3--3--3--3--3----3--------| 


       PM PM PM PM   PM   PM    PM      PM   PM   PM    PM   PM 
  E  S S  T  T  S  S S  S S   S S     S S  S S  S S   S S  S S  E 
-----------------------------------|-------------------------------| 
-----------------------------------|-------------------------------| 
-------------------9----7----------|-------9----7------------------| 
--7--L-7--7--7--7------------10----|--7--------------10----7----5--| 
--7--L-7--7--7--7------------------|----------------------------5--| 
--7--L-7--7--7--7----0----0-----0--|----0----0----0-----0----0--5--| 


       PM PM PM PM PM   PM               PM PM PM PM PM   PM 
  E  S S  T  T  S  S  S S  S S S    E  S S  T  T  S  S  S S  S S S 
---------------------------------|---------------------------------| 
---------------------------------|---------------------------------| 
----------------------4----4-5-5-|----------------------7----7-9-9-| 
--3--L-3--3--3--3--3-------------|--5--L-5--5--5--5--5-------------| 
--3--L-3--3--3--3--3-------------|--5--L-5--5--5--5--5-------------| 
--3--L-3--3--3--3--3----3--------|--5--L-5--5--5--5--5----5--------| 


       PM PM PM PM   PM   PM    PM      PM   PM 
  E  S S  T  T  S  S S  S S   S S     S S  S S  E  E  S   E   S 
-----------------------------------|----------------------------| 
-----------------------------------|----------------------------| 
-------------------9----7----------|-------9----7---------------| 
--7--L-7--7--7--7------------10----|--7------------5--L-/12\--L-| 
--7--L-7--7--7--7------------------|---------------5--L-/12\--L-| 
--7--L-7--7--7--7----0----0-----0--|----0----0-----5--L-/12\--L-| 


  H        Q       Q    E  Q    E     H        Q       Q    E  Q    E 
----------------|------------------|----------------|------------------| 
----------------|------------------|----------------|------------------| 
----------------|------------------|----------------|------------------| 
--0--------L----|--L----L--2----L--|--3--------L----|--L----L--5----L--| 
--0--------L----|--L----L--2----L--|--3--------L----|--L----L--5----L--| 
--0--------L----|--L----L--2----L--|--3--------L----|--L----L--5----L--| 


  H        Q       Q    E  Q    E     H        Q       H        Q 
----------------|------------------|----------------|----------------| 
----------------|------------------|----------------|----------------| 
----------------|------------------|----------------|----------------| 
--7--------L----|--L----L--2----L--|--3--------L----|--5--------L----| 
--7--------L----|--L----L--2----L--|--3--------L----|--5--------L----| 
--7--------L----|--L----L--2----L--|--3--------L----|--5--------L----| 


  H        Q       Q    E  Q    E     H        Q       Q    E  Q    E 
----------------|------------------|----------------|------------------| 
----------------|------------------|----------------|------------------| 
----------------|------------------|----------------|------------------| 
--0--------L----|--L----L--2----L--|--3--------L----|--L----L--5----L--| 
--0--------L----|--L----L--2----L--|--3--------L----|--L----L--5----L--| 
--0--------L----|--L----L--2----L--|--3--------L----|--L----L--5----L--| 


  H        Q       Q    E  Q    E     H        Q       H        Q 
----------------|------------------|----------------|----------------| 
----------------|------------------|----------------|----------------| 
----------------|------------------|----------------|----------------| 
--7--------L----|--L----L--2----L--|--3--------L----|--5--------L----| 
--7--------L----|--L----L--2----L--|--3--------L----|--5--------L----| 
--7--------L----|--L----L--2----L--|--3--------L----|--5--------L----| 


  H        Q       Q    E  Q    E      H        Q       Q    E   Q    E 
----------------|------------------|-----------------|-------------------| 
----------------|------------------|-----------------|-------------------| 
--7--------L----|--L----L--9----L--|--10--------L----|--L----L--12----L--| 
--x-------------|----------x-------|---x-------------|-----------x-------| 
--5--------L----|--L----L--7----L--|---8--------L----|--L----L--10----L--| 
----------------|------------------|-----------------|-------------------| 


   H        Q       Q    E  Q    E      H        Q       Q    E  Q    E 
-----------------|------------------|-----------------|------------------| 
-----------------|------------------|-----------------|------------------| 
--14--------L----|--L----L--9----L--|--10--------L----|--L----L--9----L--| 
---x-------------|----------x-------|---x-------------|----------x-------| 
--12--------L----|--L----L--7----L--|---8--------L----|--L----L--7----L--| 
-----------------|------------------|-----------------|------------------| 


  H        Q       Q    E  Q    E      H        Q       Q    E   Q    E 
----------------|------------------|-----------------|-------------------| 
----------------|------------------|-----------------|-------------------| 
--7--------L----|--L----L--9----L--|--10--------L----|--L----L--12----L--| 
--x-------------|----------x-------|---x-------------|-----------x-------| 
--5--------L----|--L----L--7----L--|---8--------L----|--L----L--10----L--| 
----------------|------------------|-----------------|-------------------| 


   H        Q       Q    E  Q    E      H        Q       Q    E   Q    E 
-----------------|------------------|-----------------|-------------------| 
-----------------|------------------|-----------------|-------------------| 
--14--------L----|--L----L--9----L--|--10--------L----|--L----L--12----L--| 
---x-------------|----------x-------|---x-------------|-----------x-------| 
--12--------L----|--L----L--7----L--|---8--------L----|--L----L--10----L--| 
-----------------|------------------|-----------------|-------------------| 


  H        Q       Q    E  Q    E     H        Q       Q    E  Q    E 
----------------|------------------|----------------|------------------| 
----------------|------------------|----------------|------------------| 
----------------|------------------|----------------|------------------| 
--0--------L----|--L----L--2----L--|--3--------L----|--L----L--5----L--| 
--0--------L----|--L----L--2----L--|--3--------L----|--L----L--5----L--| 
--0--------L----|--L----L--2----L--|--3--------L----|--L----L--5----L--| 


  H        Q       Q    E  Q    E     H        Q       H        Q 
----------------|------------------|----------------|----------------| 
----------------|------------------|----------------|----------------| 
----------------|------------------|----------------|----------------| 
--7--------L----|--L----L--2----L--|--3--------L----|--5--------L----| 
--7--------L----|--L----L--2----L--|--3--------L----|--5--------L----| 
--7--------L----|--L----L--2----L--|--3--------L----|--5--------L----| 


  H        Q       Q    E  Q    E     H        Q       Q    E  Q    E 
----------------|------------------|----------------|------------------| 
----------------|------------------|----------------|------------------| 
----------------|------------------|----------------|------------------| 
--0--------L----|--L----L--2----L--|--3--------L----|--L----L--5----L--| 
--0--------L----|--L----L--2----L--|--3--------L----|--L----L--5----L--| 
--0--------L----|--L----L--2----L--|--3--------L----|--L----L--5----L--| 


  H        Q       Q    E  Q    E     H        Q       H        Q 
----------------|------------------|----------------|----------------| 
----------------|------------------|----------------|----------------| 
----------------|------------------|----------------|----------------| 
--7--------L----|--L----L--2----L--|--3--------L----|--5--------L----| 
--7--------L----|--L----L--2----L--|--3--------L----|--5--------L----| 
--7--------L----|--L----L--2----L--|--3--------L----|--5--------L----| 


    PM PM PM    PM PM PM    PM    PM PM    PM   PM    PM PM PM   PM 
  S T  T  S   S S  S  S   S S   S S  S     S  S S   S S  S  S  S S  S S S 
----------------------------------------|---------------------------------| 
----------------------------------------|---------------------------------| 
----------------------------------------|---------------------------------| 
-------------10----------14----12-------|-----9----14---------------3-3-3-| 
--0-0--0--0-----0--0--0-----0-----0--0--|--0--7-0--12-0--0--0--3-0--3-3-3-| 
----------------------------------------|---------------------------3-3-3-| 


    PM PM PM    PM PM PM    PM    PM PM    PM  PM   PM  PM 
  S T  T  S   S S  S  S   S S   S S  S     S   S  S S   S S  S  S  S  S  S  S 
----------------------------------------|-------------------------------------| 
----------------------------------------|-------------------------12-13-12--L-| 
----------------------------------------|--------12-------9----------------12-| 
-------------10----------14----12-------|-----10-------10---------------------| 
--0-0--0--0-----0--0--0-----0-----0--0--|--8--------8-------10-10-------------| 
----------------------------------------|-------------------------------------| 

Guitar 2 

       PM PM PM   PM PM PM    PM   PM PM    PM   PM    PM PM PM   PM 
     S T  T  S  S S  S  S   S S  S S  S     S  S S   S S  S  S  S S  S S S 
D||--------------------------------------|---------------------------------| 
A||--------------------------------------|---------------------------------| 
F||--------------------------------------|---------------------------------| 
C||-------------7----------10----9-------|-----9----14---------------3-3-3-| 
G||--0-0--0--0----0--0--0-----0----0--0--|--0--7-0--12-0--0--0--3-0--3-3-3-| 
C||--------------------------------------|---------------------------3-3-3-| 


    PM PM PM   PM PM PM    PM   PM PM    PM PM   PM PM 
  S T  T  S  S S  S  S   S S  S S  S     S  S  S S  S   S  S  S  S  S  S  S 
--------------------------------------|-------------------------10-12-10--L-| 
--------------------------------------|-------------------------------------| 
--------------------------------------|--------9-------------------------12-| 
-------------7----------10----9-------|-----7-------7--10-------------------| 
--0-0--0--0----0--0--0-----0----0--0--|--8-------8--------10-10-------------| 
--------------------------------------|-------------------------------------| 


    PM PM PM   PM PM PM    PM   PM PM    PM   PM    PM PM PM   PM 
  S T  T  S  S S  S  S   S S  S S  S     S  S S   S S  S  S  S S  S S S 
--------------------------------------|---------------------------------| 
--------------------------------------|---------------------------------| 
--------------------------------------|---------------------------------| 
-------------7----------10----9-------|-----9----14---------------3-3-3-| 
--0-0--0--0----0--0--0-----0----0--0--|--0--7-0--12-0--0--0--3-0--3-3-3-| 
--------------------------------------|---------------------------3-3-3-| 


    PM PM PM   PM PM PM    PM   PM PM    PM PM   PM PM 
  S T  T  S  S S  S  S   S S  S S  S     S  S  S S  S   S  S  S  S  S  S  S 
--------------------------------------|-------------------------10-12-10--L-| 
--------------------------------------|-------------------------------------| 
--------------------------------------|--------9-------------------------12-| 
-------------7----------10----9-------|-----7-------7--10-------------------| 
--0-0--0--0----0--0--0-----0----0--0--|--8-------8--------10-10-------------| 
--------------------------------------|-------------------------------------| 


    PM PM PM   PM PM PM    PM   PM PM    PM   PM    PM PM PM   PM 
  S T  T  S  S S  S  S   S S  S S  S     S  S S   S S  S  S  S S  S S S 
--------------------------------------|---------------------------------| 
--------------------------------------|---------------------------------| 
--------------------------------------|---------------------------------| 
-------------7----------10----9-------|-----9----14---------------3-3-3-| 
--0-0--0--0----0--0--0-----0----0--0--|--0--7-0--12-0--0--0--3-0--3-3-3-| 
--------------------------------------|---------------------------3-3-3-| 


    PM PM PM   PM PM PM    PM   PM PM    PM PM   PM PM 
  S T  T  S  S S  S  S   S S  S S  S     S  S  S S  S   S  S  S  S  S  S  S 
--------------------------------------|-------------------------10-12-10--L-| 
--------------------------------------|-------------------------------------| 
--------------------------------------|--------9-------------------------12-| 
-------------7----------10----9-------|-----7-------7--10-------------------| 
--0-0--0--0----0--0--0-----0----0--0--|--8-------8--------10-10-------------| 
--------------------------------------|-------------------------------------| 


    PM PM PM   PM PM PM    PM   PM PM    PM   PM    PM PM PM   PM 
  S T  T  S  S S  S  S   S S  S S  S     S  S S   S S  S  S  S S  S S S 
--------------------------------------|---------------------------------| 
--------------------------------------|---------------------------------| 
--------------------------------------|---------------------------------| 
-------------7----------10----9-------|-----9----14---------------3-3-3-| 
--0-0--0--0----0--0--0-----0----0--0--|--0--7-0--12-0--0--0--3-0--3-3-3-| 
--------------------------------------|---------------------------3-3-3-| 


    PM PM PM   PM PM PM    PM   PM PM    PM PM   PM PM 
  S T  T  S  S S  S  S   S S  S S  S     S  S  S S  S   S  S  S  S  S  S  S 
--------------------------------------|-------------------------10-12-10--L-| 
--------------------------------------|-------------------------------------| 
--------------------------------------|--------9-------------------------12-| 
-------------7----------10----9-------|-----7-------7--10-------------------| 
--0-0--0--0----0--0--0-----0----0--0--|--8-------8--------10-10-------------| 
--------------------------------------|-------------------------------------| 


       PM PM PM PM PM   PM               PM PM PM PM PM   PM 
  E  S S  T  T  S  S  S S  S S S    E  S S  T  T  S  S  S S  S  S  S 
---------------------------------|-----------------------------------| 
---------------------------------|-----------------------------------| 
---------------------------------|-----------------------------------| 
--0--L-0--0--0--0--0-------------|--3--L-3--3--3--3--3--7----7-10-10-| 
--0--L-0--0--0--0--0--7----7-8-8-|--3--L-3--3--3--3--3---------------| 
--0--L-0--0--0--0--0----0--------|--3--L-3--3--3--3--3----3----------| 


       PM PM PM PM    PM   PM    PM      PM    PM   PM    PM   PM 
  E  S S  T  T  S   S S  S S   S S     S S   S S  S S   S S  S S  E 
------------------------------------|--------------------------------| 
------------------------------------|--------------------------------| 
------------------------------------|--------------------------------| 
--7--L-7--7--7--7--10----9----------|-------10----9---------------5--| 
--7--L-7--7--7--7-------------10----|--7---------------10----7----5--| 
--7--L-7--7--7--7-----0----0-----0--|----0-----0----0-----0----0--5--| 


       PM PM PM PM PM   PM               PM PM PM PM PM   PM 
  E  S S  T  T  S  S  S S  S S S    E  S S  T  T  S  S  S S  S  S  S 
---------------------------------|-----------------------------------| 
---------------------------------|-----------------------------------| 
---------------------------------|-----------------------------------| 
--3--L-3--3--3--3--3--5----5-7-7-|--5--L-5--5--5--5--5--9----9-10-10-| 
--3--L-3--3--3--3--3-------------|--5--L-5--5--5--5--5---------------| 
--3--L-3--3--3--3--3----3--------|--5--L-5--5--5--5--5----5----------| 


       PM PM PM PM    PM   PM    PM      PM    PM 
  E  S S  T  T  S   S S  S S   S S     S S   S S  E  E  S   E   S 
------------------------------------|-----------------------------| 
------------------------------------|-----------------------------| 
------------------------------------|-----------------------------| 
--7--L-7--7--7--7--10----9----------|-------10----9--5--L-/12\--L-| 
--7--L-7--7--7--7-------------10----|--7-------------5--L-/12\--L-| 
--7--L-7--7--7--7-----0----0-----0--|----0-----0-----5--L-/12\--L-| 


    PM   PM   PM   PM   PM   PM      PM   PM   PM   PM   PM   PM 
  S S  S S  S S  S S  S S  S S     S S  S S  S S  S S  S S  S S 
--------------------------------|--------------------------------| 
--------------------------------|--------------------------------| 
--5----4-------------------4----|--5----4---------4----5----4----| 
----0----0--5-0--2-0--5-0----0--|----0----0--5-0----0----0----0--| 
--------------------------------|--------------------------------| 
--------------------------------|--------------------------------| 


    PM   PM   PM   PM   PM   PM      PM   PM   PM   PM   PM   PM 
  S S  S S  S S  S S  S S  S S     S S  S S  S S  S S  S S  S S 
--------------------------------|--------------------------------| 
--------------------------------|--------------------------------| 
--5----4-------------------4----|--5----4---------4----5----4----| 
----0----0--5-0--2-0--5-0----0--|----0----0--5-0----0----0----0--| 
--------------------------------|--------------------------------| 
--------------------------------|--------------------------------| 


    PM   PM   PM   PM   PM   PM      PM   PM   PM   PM   PM   PM 
  S S  S S  S S  S S  S S  S S     S S  S S  S S  S S  S S  S S 
--------------------------------|--------------------------------| 
--------------------------------|--------------------------------| 
--5----4-------------------4----|--5----4---------4----5----4----| 
----0----0--5-0--2-0--5-0----0--|----0----0--5-0----0----0----0--| 
--------------------------------|--------------------------------| 
--------------------------------|--------------------------------| 


    PM   PM   PM   PM   PM   PM      PM   PM   PM   PM   PM   PM 
  S S  S S  S S  S S  S S  S S     S S  S S  S S  S S  S S  S S 
--------------------------------|--------------------------------|----|----| 
--------------------------------|--------------------------------|----|----| 
--5----4-------------------4----|--5----4---------4----5----4----|----|----| 
----0----0--5-0--2-0--5-0----0--|----0----0--5-0----0----0----0--|----|----| 
--------------------------------|--------------------------------|----|----| 
--------------------------------|--------------------------------|----|----| 


       Pickslide 
       H          X  X  X  X  X  X  X  X  X  X  X  X  X  X  X X 
----|------------24-23-22-21-20-19-18-17-16-15-14-13-12-11-10-9-| 
----|------------24-23-22-21-20-19-18-17-16-15-14-13-12-11-10-9-| 
----|-----------------------------------------------------------| 
----|-----------------------------------------------------------| 
----|-----------------------------------------------------------| 
----|-----------------------------------------------------------| 


    PM PM PM   PM PM PM    PM   PM PM    PM   PM    PM PM PM   PM 
  S T  T  S  S S  S  S   S S  S S  S     S  S S   S S  S  S  S S  S S S 
--------------------------------------|---------------------------------| 
--------------------------------------|---------------------------------| 
--------------------------------------|---------------------------------| 
-------------7----------10----9-------|-----9----14---------------3-3-3-| 
--0-0--0--0----0--0--0-----0----0--0--|--0--7-0--12-0--0--0--3-0--3-3-3-| 
--------------------------------------|---------------------------3-3-3-| 


    PM PM PM   PM PM PM    PM   PM PM    PM PM   PM PM 
  S T  T  S  S S  S  S   S S  S S  S     S  S  S S  S   S  S  S  S  S  S  S 
--------------------------------------|-------------------------10-12-10--L-| 
--------------------------------------|-------------------------------------| 
--------------------------------------|--------9-------------------------12-| 
-------------7----------10----9-------|-----7-------7--10-------------------| 
--0-0--0--0----0--0--0-----0----0--0--|--8-------8--------10-10-------------| 
--------------------------------------|-------------------------------------| 


       PM PM PM PM PM   PM               PM PM PM PM PM   PM 
  E  S S  T  T  S  S  S S  S S S    E  S S  T  T  S  S  S S  S  S  S 
---------------------------------|-----------------------------------| 
---------------------------------|-----------------------------------| 
---------------------------------|-----------------------------------| 
--0--L-0--0--0--0--0-------------|--3--L-3--3--3--3--3--7----7-10-10-| 
--0--L-0--0--0--0--0--7----7-8-8-|--3--L-3--3--3--3--3---------------| 
--0--L-0--0--0--0--0----0--------|--3--L-3--3--3--3--3----3----------| 


       PM PM PM PM    PM   PM    PM      PM    PM   PM    PM   PM 
  E  S S  T  T  S   S S  S S   S S     S S   S S  S S   S S  S S  E 
------------------------------------|--------------------------------| 
------------------------------------|--------------------------------| 
------------------------------------|--------------------------------| 
--7--L-7--7--7--7--10----9----------|-------10----9---------------5--| 
--7--L-7--7--7--7-------------10----|--7---------------10----7----5--| 
--7--L-7--7--7--7-----0----0-----0--|----0-----0----0-----0----0--5--| 


       PM PM PM PM PM   PM               PM PM PM PM PM   PM 
  E  S S  T  T  S  S  S S  S S S    E  S S  T  T  S  S  S S  S  S  S 
---------------------------------|-----------------------------------| 
---------------------------------|-----------------------------------| 
---------------------------------|-----------------------------------| 
--3--L-3--3--3--3--3--5----5-7-7-|--5--L-5--5--5--5--5--9----9-10-10-| 
--3--L-3--3--3--3--3-------------|--5--L-5--5--5--5--5---------------| 
--3--L-3--3--3--3--3----3--------|--5--L-5--5--5--5--5----5----------| 


       PM PM PM PM    PM   PM    PM      PM    PM 
  E  S S  T  T  S   S S  S S   S S     S S   S S  E  E  S   E   S 
------------------------------------|-----------------------------| 
------------------------------------|-----------------------------| 
------------------------------------|-----------------------------| 
--7--L-7--7--7--7--10----9----------|-------10----9--5--L-/12\--L-| 
--7--L-7--7--7--7-------------10----|--7-------------5--L-/12\--L-| 
--7--L-7--7--7--7-----0----0-----0--|----0-----0-----5--L-/12\--L-| 


    PM   PM   PM   PM   PM   PM      PM   PM   PM   PM   PM   PM 
  S S  S S  S S  S S  S S  S S     S S  S S  S S  S S  S S  S S 
--------------------------------|--------------------------------| 
--------------------------------|--------------------------------| 
--5----4-------------------4----|--5----4---------4----5----4----| 
----0----0--5-0--2-0--5-0----0--|----0----0--5-0----0----0----0--| 
--------------------------------|--------------------------------| 
--------------------------------|--------------------------------| 


    PM   PM   PM   PM   PM   PM      PM   PM   PM   PM   PM   PM 
  S S  S S  S S  S S  S S  S S     S S  S S  S S  S S  S S  S S 
--------------------------------|--------------------------------| 
--------------------------------|--------------------------------| 
--5----4-------------------4----|--5----4---------4----5----4----| 
----0----0--5-0--2-0--5-0----0--|----0----0--5-0----0----0----0--| 
--------------------------------|--------------------------------| 
--------------------------------|--------------------------------| 


    PM   PM   PM   PM   PM   PM      PM   PM   PM   PM   PM   PM 
  S S  S S  S S  S S  S S  S S     S S  S S  S S  S S  S S  S S 
--------------------------------|--------------------------------| 
--------------------------------|--------------------------------| 
--5----4-------------------4----|--5----4---------4----5----4----| 
----0----0--5-0--2-0--5-0----0--|----0----0--5-0----0----0----0--| 
--------------------------------|--------------------------------| 
--------------------------------|--------------------------------| 


    PM   PM   PM   PM   PM   PM      PM   PM   PM   PM   PM   PM 
  S S  S S  S S  S S  S S  S S     S S  S S  S S  S S  S S  S S 
--------------------------------|--------------------------------| 
--------------------------------|--------------------------------| 
--5----4-------------------4----|--5----4---------4----5----4----| 
----0----0--5-0--2-0--5-0----0--|----0----0--5-0----0----0----0--| 
--------------------------------|--------------------------------| 
--------------------------------|--------------------------------| 


    PM   PM   PM   PM   PM   PM      PM   PM   PM   PM   PM   PM 
  S S  S S  S S  S S  S S  S S     S S  S S  S S  S S  S S  S S 
--------------------------------|--------------------------------| 
--------------------------------|--------------------------------| 
--5----4-------------------4----|--5----4---------4----5----4----| 
----0----0--5-0--2-0--5-0----0--|----0----0--5-0----0----0----0--| 
--------------------------------|--------------------------------| 
--------------------------------|--------------------------------| 


    PM   PM   PM   PM   PM   PM      PM   PM   PM   PM   PM   PM 
  S S  S S  S S  S S  S S  S S     S S  S S  S S  S S  S S  S S 
--------------------------------|--------------------------------| 
--------------------------------|--------------------------------| 
--5----4-------------------4----|--5----4---------4----5----4----| 
----0----0--5-0--2-0--5-0----0--|----0----0--5-0----0----0----0--| 
--------------------------------|--------------------------------| 
--------------------------------|--------------------------------| 


    PM   PM   PM   PM   PM   PM      PM   PM   PM   PM   PM   PM 
  S S  S S  S S  S S  S S  S S     S S  S S  S S  S S  S S  S S 
--------------------------------|--------------------------------| 
--------------------------------|--------------------------------| 
--5----4-------------------4----|--5----4---------4----5----4----| 
----0----0--5-0--2-0--5-0----0--|----0----0--5-0----0----0----0--| 
--------------------------------|--------------------------------| 
--------------------------------|--------------------------------| 


    PM   PM   PM   PM   PM   PM      PM   PM   PM   PM   PM   PM 
  S S  S S  S S  S S  S S  S S     S S  S S  S S  S S  S S  S S 
--------------------------------|--------------------------------| 
--------------------------------|--------------------------------| 
--5----4-------------------4----|--5----4---------4----5----4----| 
----0----0--5-0--2-0--5-0----0--|----0----0--5-0----0----0----0--| 
--------------------------------|--------------------------------| 
--------------------------------|--------------------------------| 


   T  T  T  T  T  T  T  T  T  T  T  T  T  T  T  T  T  T  T  T  T  T  T  T 
--12-12-12-12-12-12-12-12-12-12-12-12-12-12-12-12-12-12-12-12-12-12-12-12-| 
--------------------------------------------------------------------------| 
--------------------------------------------------------------------------| 
--------------------------------------------------------------------------| 
--------------------------------------------------------------------------| 
--------------------------------------------------------------------------| 


   T  T  T  T  T  T  T  T  T  T  T  T T T T T T T T T T T T  T 
--12-12-12-12-12-12-12-12-12-12-12-12-7-7-7-7-7-7-7-7-7-8-8-10-| 
---------------------------------------------------------------| 
---------------------------------------------------------------| 
---------------------------------------------------------------| 
---------------------------------------------------------------| 
---------------------------------------------------------------| 


   T  T  T  T  T  T  T  T  T  T  T  T  T  T  T  T  T  T  T  T  T  T  T  T 
--12-12-12-12-12-12-12-12-12-12-12-12-12-12-12-12-12-12-12-12-12-12-12-12-| 
--------------------------------------------------------------------------| 
--------------------------------------------------------------------------| 
--------------------------------------------------------------------------| 
--------------------------------------------------------------------------| 
--------------------------------------------------------------------------| 


   T  T  T  T  T  T  T  T  T  T  T  T T T T T T T T T T T T  T 
--12-12-12-12-12-12-12-12-12-12-12-12-7-7-7-7-7-7-7-7-7-8-8-10-| 
---------------------------------------------------------------| 
---------------------------------------------------------------| 
---------------------------------------------------------------| 
---------------------------------------------------------------| 
---------------------------------------------------------------| 


   T  T  T  T  T  T  T  T  T  T  T  T  T  T  T  T  T  T  T  T  T  T  T  T 
--12-12-12-12-12-12-12-12-12-12-12-12-12-12-12-12-12-12-12-12-12-12-12-12-| 
--------------------------------------------------------------------------| 
--------------------------------------------------------------------------| 
--------------------------------------------------------------------------| 
--------------------------------------------------------------------------| 
--------------------------------------------------------------------------| 


   T  T  T  T  T  T  T  T  T  T  T  T T T T T T T T T T T T  T 
--12-12-12-12-12-12-12-12-12-12-12-12-7-7-7-7-7-7-7-7-7-8-8-10-| 
---------------------------------------------------------------| 
---------------------------------------------------------------| 
---------------------------------------------------------------| 
---------------------------------------------------------------| 
---------------------------------------------------------------| 


   T  T  T  T  T  T  T  T  T  T  T  T  T  T  T  T  T  T  T  T  T  T  T  T 
--12-12-12-12-12-12-12-12-12-12-12-12-12-12-12-12-12-12-12-12-12-12-12-12-| 
--------------------------------------------------------------------------| 
--------------------------------------------------------------------------| 
--------------------------------------------------------------------------| 
--------------------------------------------------------------------------| 
--------------------------------------------------------------------------| 


  T T T T T T T T T T T T T T T T T T T T T T T T 
--7-7-7-7-7-8-8-8-8-8-7-7-5-5-5-5-5-5-5-5-5-5-5-5-| 
--------------------------------------------------| 
--------------------------------------------------| 
--------------------------------------------------| 
--------------------------------------------------| 
--------------------------------------------------| 


   T  T  T  T  T  T  T  T  T  T  T  T  T  T  T  T  T  T  T  T  T  T  T  T 
--12-12-12-12-12-12-12-12-12-12-12-12-12-12-12-12-12-12-12-12-12-12-12-12-| 
--------------------------------------------------------------------------| 
--------------------------------------------------------------------------| 
--------------------------------------------------------------------------| 
--------------------------------------------------------------------------| 
--------------------------------------------------------------------------| 


   T  T  T  T  T  T  T  T  T  T  T  T T T T T T T T T T T T  T 
--12-12-12-12-12-12-12-12-12-12-12-12-7-7-7-7-7-7-7-7-7-8-8-10-| 
---------------------------------------------------------------| 
---------------------------------------------------------------| 
---------------------------------------------------------------| 
---------------------------------------------------------------| 
---------------------------------------------------------------| 


   T  T  T  T  T  T  T  T  T  T  T  T  T  T  T  T  T  T  T  T  T  T  T  T 
--12-12-12-12-12-12-12-12-12-12-12-12-12-12-12-12-12-12-12-12-12-12-12-12-| 
--------------------------------------------------------------------------| 
--------------------------------------------------------------------------| 
--------------------------------------------------------------------------| 
--------------------------------------------------------------------------| 
--------------------------------------------------------------------------| 


   T  T  T  T  T  T  T  T  T  T  T  T T T T T T T T T T T T  T 
--12-12-12-12-12-12-12-12-12-12-12-12-7-7-7-7-7-7-7-7-7-8-8-10-| 
---------------------------------------------------------------| 
---------------------------------------------------------------| 
---------------------------------------------------------------| 
---------------------------------------------------------------| 
---------------------------------------------------------------| 


   T  T  T  T  T  T  T  T  T  T  T  T  T  T  T  T  T  T  T  T  T  T  T  T 
--12-12-12-12-12-12-12-12-12-12-12-12-12-12-12-12-12-12-12-12-12-12-12-12-| 
--------------------------------------------------------------------------| 
--------------------------------------------------------------------------| 
--------------------------------------------------------------------------| 
--------------------------------------------------------------------------| 
--------------------------------------------------------------------------| 


   T  T  T  T  T  T  T  T  T  T  T  T T T T T T T T T T T T  T 
--12-12-12-12-12-12-12-12-12-12-12-12-7-7-7-7-7-7-7-7-7-8-8-10-| 
---------------------------------------------------------------| 
---------------------------------------------------------------| 
---------------------------------------------------------------| 
---------------------------------------------------------------| 
---------------------------------------------------------------| 


   T  T  T  T  T  T  T  T  T  T  T  T  T  T  T  T  T  T  T  T  T  T  T  T 
--12-12-12-12-12-12-12-12-12-12-12-12-12-12-12-12-12-12-12-12-12-12-12-12-| 
--------------------------------------------------------------------------| 
--------------------------------------------------------------------------| 
--------------------------------------------------------------------------| 
--------------------------------------------------------------------------| 
--------------------------------------------------------------------------| 


   T  T  T  T  T  T  T  T  T  T  T  T  X  X  X  X  X  X  X  X  X  X  X  X  X  X 
--12-12-12-12-12-12-12-12-12-12-12-12-24-23-22-21-20-19-18-17-16-15-14-13-12-11-| 
--------------------------------------24-23-22-21-20-19-18-17-16-15-14-13-12-11-| 
--------------------------------------------------------------------------------| 
--------------------------------------------------------------------------------| 
--------------------------------------------------------------------------------| 
--------------------------------------------------------------------------------| 


    PM   PM   PM   PM   PM   PM      PM   PM   PM   PM   PM   PM 
  S S  S S  S S  S S  S S  S S     S S  S S  S S  S S  S S  S S 
--------------------------------|--------------------------------| 
--------------------------------|--------------------------------| 
--5----4-------------------4----|--5----4---------4----5----4----| 
----0----0--5-0--2-0--5-0----0--|----0----0--5-0----0----0----0--| 
--------------------------------|--------------------------------| 
--------------------------------|--------------------------------| 


    PM   PM   PM   PM   PM   PM      PM   PM   PM   PM   PM   PM 
  S S  S S  S S  S S  S S  S S     S S  S S  S S  S S  S S  S S 
--------------------------------|--------------------------------| 
--------------------------------|--------------------------------| 
--5----4-------------------4----|--5----4---------4----5----4----| 
----0----0--5-0--2-0--5-0----0--|----0----0--5-0----0----0----0--| 
--------------------------------|--------------------------------| 
--------------------------------|--------------------------------| 


    PM   PM   PM   PM   PM   PM      PM   PM   PM   PM   PM   PM 
  S S  S S  S S  S S  S S  S S     S S  S S  S S  S S  S S  S S 
--------------------------------|--------------------------------| 
--------------------------------|--------------------------------| 
--5----4-------------------4----|--5----4---------4----5----4----| 
----0----0--5-0--2-0--5-0----0--|----0----0--5-0----0----0----0--| 
--------------------------------|--------------------------------| 
--------------------------------|--------------------------------| 


    PM   PM   PM   PM   PM   PM      PM   PM   PM   PM   PM   PM 
  S S  S S  S S  S S  S S  S S     S S  S S  S S  S S  S S  S S 
--------------------------------|--------------------------------| 
--------------------------------|--------------------------------| 
--5----4-------------------4----|--5----4---------4----5----4----| 
----0----0--5-0--2-0--5-0----0--|----0----0--5-0----0----0----0--| 
--------------------------------|--------------------------------| 
--------------------------------|--------------------------------| 


    PM   PM   PM   PM   PM   PM      PM   PM   PM   PM   PM   PM 
  S S  S S  S S  S S  S S  S S     S S  S S  S S  S S  S S  S S 
--------------------------------|--------------------------------| 
--------------------------------|--------------------------------| 
--5----4-------------------4----|--5----4---------4----5----4----| 
----0----0--5-0--2-0--5-0----0--|----0----0--5-0----0----0----0--| 
--------------------------------|--------------------------------| 
--------------------------------|--------------------------------| 


    PM   PM   PM   PM   PM   PM      PM   PM   PM   PM   PM   PM 
  S S  S S  S S  S S  S S  S S     S S  S S  S S  S S  S S  S S 
--------------------------------|--------------------------------| 
--------------------------------|--------------------------------| 
--5----4-------------------4----|--5----4---------4----5----4----| 
----0----0--5-0--2-0--5-0----0--|----0----0--5-0----0----0----0--| 
--------------------------------|--------------------------------| 
--------------------------------|--------------------------------| 


    PM   PM   PM   PM   PM   PM      PM   PM   PM   PM   PM   PM 
  S S  S S  S S  S S  S S  S S     S S  S S  S S  S S  S S  S S 
--------------------------------|--------------------------------| 
--------------------------------|--------------------------------| 
--5----4-------------------4----|--5----4---------4----5----4----| 
----0----0--5-0--2-0--5-0----0--|----0----0--5-0----0----0----0--| 
--------------------------------|--------------------------------| 
--------------------------------|--------------------------------| 


    PM   PM   PM   PM   PM   PM      PM   PM   PM   PM   PM   PM 
  S S  S S  S S  S S  S S  S S     S S  S S  S S  S S  S S  S S 
--------------------------------|--------------------------------| 
--------------------------------|--------------------------------| 
--5----4-------------------4----|--5----4---------4----5----4----| 
----0----0--5-0--2-0--5-0----0--|----0----0--5-0----0----0----0--| 
--------------------------------|--------------------------------| 
--------------------------------|--------------------------------| 


    PM PM PM   PM PM PM    PM   PM PM    PM   PM    PM PM PM   PM 
  S T  T  S  S S  S  S   S S  S S  S     S  S S   S S  S  S  S S  S S S 
--------------------------------------|---------------------------------| 
--------------------------------------|---------------------------------| 
--------------------------------------|---------------------------------| 
-------------7----------10----9-------|-----9----14---------------3-3-3-| 
--0-0--0--0----0--0--0-----0----0--0--|--0--7-0--12-0--0--0--3-0--3-3-3-| 
--------------------------------------|---------------------------3-3-3-| 


    PM PM PM   PM PM PM    PM   PM PM    PM PM   PM PM 
  S T  T  S  S S  S  S   S S  S S  S     S  S  S S  S   S  S  S  S  S  S  S 
--------------------------------------|-------------------------10-12-10--L-| 
--------------------------------------|-------------------------------------| 
--------------------------------------|--------9-------------------------12-| 
-------------7----------10----9-------|-----7-------7--10-------------------| 
--0-0--0--0----0--0--0-----0----0--0--|--8-------8--------10-10-------------| 
--------------------------------------|-------------------------------------| 


 
		  

Full key step upFull key step up
Half key step upHalf key step up
Half key step downHalf key step down
Full key step downFull key step down
hide glossary

See also:

tabs Fall Out Boy - Beat It tabs Bad Religion - American Jesus tabs Afi - Miss murder tabs Green Day - Holiday ( Easy Version) tabs Green Day - Time of your life (good ridance) tabs Blink 182 - Stay together for the kids (ver. 2)
e-chords

Other versions:

tabs KillSwitch Engage - Beyond The Flames
auto scroll beats size up size down change color hide chords drawings
tab show chords e-chords YouTube Clip e-chords hide all tabs e-chords go to top tab

share