KillSwitch Engage

Breathe Life

KillSwitch Engage

tabs

by  EDSOOLIVEIRA

save to print version add songbook text version e-mail correct tuner
chordsukulelecavacokeyboardtabbassdrumsharmonicaflute Guitar Pro
close

there isn't a video lesson for this song

chords

Breathe Life

	  		
Tuning: C G C F A D  


Riff 1 
 
|---------------------------------------------------------------| 
|---------------------------------------------------------------| 
|---------------------------------------------------------------| 
|---------------------------------------------------------------| 
|-5h6p5----------------------10h12p10---8h10p8---6h8p6-5h6p5----| 
|--------0--0-0-0--0--0-0-0-----------0--------0----------------| 
         .  . . .  .  . . .           .        . 


 
|----------------------------------------------------| 
|----------------------------------------------------| 
|----------------------------------------------------| 
|----------------------------------------------------| 
|----------------------------------------------------| 
|-0--0-0-0--0--0-0-0--5h7p5-0-3h5p3-0-1h3p1-0h1p0----| 
  .  . . .  .  . . .        .       .    


|---------------------------------------| 
|---------------------------------------| 
|-------------------5-------------------| 
|---------------5-7----8-7--8-7-5-------| 
|----------------------------------7----| 
|-0--0-0-0--0-0-------------------------| 
 
| .  . . .  . .   
|---------------------------------------| 
|---------------------------------------| 
|---------------------------------------| 
|-------------------7-------------------| 
|---------------7h8---10-8-10-8-7-------| 
|-0--0-0-0--0-0-------------------10----| 

 
  .  . . .  . .    


Riff 2 
|----------------------------------------------------------------| 
|----------------------------------------------------------------| 
|----------------------------------------------------------------| 
|------------------------------------------------3-----5---------| 
|------------------------------------------------1-----3---------| 
|-0-0-0-0--0-0-0-0--0-0-0-0--0-0-0-0--0-0-0--0-0---3-0---3-0-3---| 
  . . . .  . . . .  . . . .  . . . .  . . .  . .   . .   . . .   



 
Riff 3 
|---------------------------------------------------| 
|---------------------------------------------------| 
|---------------------------------------------------| 
|--7--5-3--2----------------------------------------| 
|--5--3-1--0--5--3--0----------0----------0---------| 
|-------------5--3--0--0-0-0-0-0--0-0-0-0-0--0-0----| 

|                      . . . .    . . . .    . .  
 
| Strumming....(not just single notes) listen to song for timing 
|-13---------18----13-------------------------------| 
|---------------------------------------------------| 
|-10---------15----10-------------------------------| 
|---------------------------------------------------| 
|---------------------------------------------------| 
|---------------------------------------------------| 




Riff 4 
 
|--------------------------------------------------------------------| 
|--------------------------------------------------------------------| 
|--------------------------------------------------------------------| 
|-1p0---------1p0-----5h7-7h8-8p0--1p0---------1p0-------------------| 
|-1p0---------1p0-----3h5-5h6-6p0--1p0---------1p0-----1h3-3h4-4p0---| 
|-----0-0-0-0-----0-0------------------0-0-0-0-----0-0-1h3-3h4-4p0---| 
      . . . .     . .                  . . . .     . . 


 
                                                       ~ 
|------------------------------------------------------------------| 
|------------------------------------------------------------------| 
|-----------------------------------------------------------5----| 
|-1p0---------1p0-----5h7-7h8-8p0--1p0---------1p0-----------------| 
|-1p0---------1p0-----3h5-5h6-6p0--1p0---------1p0--------3--------| 
|-----0-0-0-0-----0-0------------------0-0-0-0-----0-0-3-----------| 
      . . . .     . .                  . . . .     . .   



Solo 
 
  ~ 
|-----------3h5-3-----------------8h10p8--------8h10p8--------8h10p8----| 
|-----------------6-5-6---3--8h10--------8h10p8--------8h10p8-----------| 
|------5-7--------------5-----------------------------------------------| 
|----7------------------------------------------------------------------| 
|-5---------------------------------------------------------------------| 
|-----------------------------------------------------------------------| 



 
                                                      ~ 
|-10p8-8-8b10--12b13r--------------------------------------| 
|---------------------13------------------------8----------| 
|------------------------12p10p9----7-9-10-7-9-10b12--7----| 
|--------------------------------10------------------------| 
|----------------------------------------------------------| 
|----------------------------------------------------------| 
 
		  

See also:

tabs Fall Out Boy - Beat It tabs Bad Religion - American Jesus tabs Afi - Miss murder tabs Green Day - Holiday ( Easy Version) tabs Green Day - Time of your life (good ridance) tabs Blink 182 - Stay together for the kids (ver. 2)
e-chords

Other versions:

tabs KillSwitch Engage - Breathe Life
auto scroll beats size up size down change color hide chords drawings
tab show chords e-chords YouTube Clip e-chords hide all tabs e-chords go to top tab

share