KillSwitch Engage

Fixation On The Darkness

KillSwitch Engage

tabs

by  EDSOOLIVEIRA

save to print version add songbook text version e-mail correct tuner
chordsukulelecavacokeyboardtabbassdrumsharmonicaflute Guitar Pro
close

there isn't a video lesson for this song

chords

Fixation On The Darkness

	  		
Tuning: C G C F A D 


Intro 
 
|-------------------------| 
|-------------------------| 
|-------------------------| x1 
|-1/8\1--0---4/6--0---4/6-| 
|-1/8\1--0---4/6--0---4/6-| 
|-1/8\1--0---4/6--0---4/6-| 



Guitar 1 
 
|------------------------------| 
|------------------------------| 
|------------------------------| x4 
|-0-0---0-0-0-0-0-0---0-0--4/6-| 
|-0-0---0-0-0-0-0-0---0-0--4/6-| 
|-0-0---0-0-0-0-0-0---0-0--4/6-| 

PM- -   - - - - - -   - - 


Guitar 2  
 
|-------------------------------------------------------------------------------| 
|-------------------------------------------------------------------------------| 
|-------------------------------------------------------------------------------| x2 
|-0-x-x-3-5-x-x-5-x-x-5-x-x-3-5--5p3---0-x-x-3-5-x-x-5-x-x-5-x-x-3-5--3h5p3h5p3-| 
|-------------------------------------------------------------------------------| 
|-------------------------------------------------------------------------------| 



Verse 
 
|---------------------------------------------------------| 
|---------------------------------------------------------| 
|---------------------------------------------------------| x1 
|-0--0-0-1-0-3-3h4-0h2p0--------0--0-0-1-0-4-4h5-4h5------| 
|-0--0-0-1-0-3-3h4-0h2p0--(2)---0--0-0-1-0-4-4h5-4h5--(4)-| 
|-0--0-0-1-0-3-3h4-0h2p0--------0--0-0-1-0-4-4h5-4h5------| 


 
|-------------------------------------------------------| 
|-------------------------------------------------------| 
|-------------------------------------------------------| x1 
|-0--0-0-1-0-3-3h4-0h2p0--------0--0-0-1-0-4-4h5-4h5-5\-| 
|-0--0-0-1-0-3-3h4-0h2p0--(2)---0--0-0-1-0-4-4h5-4h5-5\-| 
|-0--0-0-1-0-3-3h4-0h2p0--------0--0-0-1-0-4-4h5-4h5-5\-| 


Guitar 1 
 
|------------------------------| 
|------------------------------| 
|------------------------------| x4 
|-0-0---0-0-0-0-0-0---0-0--4/6-| 
|-0-0---0-0-0-0-0-0---0-0--4/6-| 
|-0-0---0-0-0-0-0-0---0-0--4/6-| 

PM- -   - - - - - -   - -  


Guitar 2  
 
|-------------------------------------------------------------------------------| 
|-------------------------------------------------------------------------------| 
|-------------------------------------------------------------------------------| x2 
|-0-x-x-3-5-x-x-5-x-x-5-x-x-3-5--5p3---0-x-x-3-5-x-x-5-x-x-5-x-x-3-5--3h5p3h5p3-| 
|-------------------------------------------------------------------------------| 
|-------------------------------------------------------------------------------| 



Verse 
 
|---------------------------------------------------------| 
|---------------------------------------------------------| 
|---------------------------------------------------------| x1 
|-0--0-0-1-0-3-3h4-0h2p0--------0--0-0-1-0-4-4h5-4h5------| 
|-0--0-0-1-0-3-3h4-0h2p0--(2)---0--0-0-1-0-4-4h5-4h5--(4)-| 
|-0--0-0-1-0-3-3h4-0h2p0--------0--0-0-1-0-4-4h5-4h5------| 


 
|-------------------------------------------------------| 
|-------------------------------------------------------| 
|-------------------------------------------------------| x1 
|-0--0-0-1-0-3-3h4-0h2p0--------0--0-0-1-0-4-4h5-4h5-5\-| 
|-0--0-0-1-0-3-3h4-0h2p0--(2)---0--0-0-1-0-4-4h5-4h5-5\-| 
|-0--0-0-1-0-3-3h4-0h2p0--------0--0-0-1-0-4-4h5-4h5-5\-| 



Fill 
 
|-----------| 
|-----------| 
|-----------| x1 
|-3h5-3-----| 
|-------3-0-| 
|-----------| 



Chorus - Guitar 1 
 
|---------------------------| 
|---------------------------| 
|-2--2--2--5--5--7--7--7--7-| x4 
|-2--2--2--5--5--7--7--7--7-| 
|-0--0--0--3--3--5--5--5--5-| 
|-0--0--0--3--3--5--5--5--5-| 



Chorus - Guitar 2 
 
|---------------------------------------------------------------------------------------------------| 
|8--8-------------8-------8----------------8-8---------8-------------8-------8-----------------8-8--| 
|7----7--------7--7----7----7----------7-------7----7----7--------7--7----7----7----------7--------7|x1 
|5------5----5----5--5--------5----5-5---5--------5--------5----5----5--5--------5----5-5---5-------| 
|5--------5-------5-------------5----------------------------5-------5-------------5----------------| 
|----------------------------------------------------------------------------------------------------| 



 
|----------------------------------------------------| 
|------8-------------8-------8-----------------8-8---| 
|---7----7--------7--7----7----7----------7--------7-| x2 
|-5--------5----5----5--5--------5----5-5---5--------| 
|------------5-------5-------------5-----------------| 
|----------------------------------------------------| 



Bridge - Play x3 
 
|-------------------------------------------------------------| 
|-------------------------------------------------------------| 
|-------------------------------------------------------------| 
|-0-0-0-0-0-0-7-7-7--5-5-5----------0-0-1--0-0-0--0-0-0-0-0-0-| 
|--------------------------6-6-6-6--0-0-1--0-0-0--0-0-0-0-0-0-| 
|-----------------------------------0-0-1--0-0-0--0-0-0-0-0-0-| 

PM- - - - - -                       - -    - -    - - - - - -   


 
|--------------------------| 
|--------------------------| 
|--------3-5---------------|  
|-7-7-7--3-5---------------| 
|--------1-3--3h5p3p0------| 
|----------------------(2)-| 



Guitar 1 
 
|--------------------------------------------------| 
|--------------------------------------------------| 
|--------------------------------3-5---------------| x2 
|-0--0-0---0-0-0-0-0-0-0-0--0-0--3-5---------------| 
|-0--0-0---0-0-0-0-0-0-0-0--0-0--1-3--3h5p3p0------| 
|-0--0-0---0-0-0-0-0-0-0-0--0-0----------------(2)-| 

PM-  - -   - - - - - - - -  - - 


Guitar 2 
 
|-------------------------------------------------------------------------| 
|-------------------------------------------------------------------------| 
|-------------------------------------------------------3-5---------------| x2 
|-0-0-0-0-0-0-7-7-7--5-5-5-----------0-0-0-0-0-0-7-7-7--3-5---------------| 
|--------------------------6-6-6-6----------------------1-3--3h5p3p0------| 
|---------------------------------------------------------------------(2)-| 

PM- - - - - -                        - - - - - -  


Verse 
 
|---------------------------------------------------------| 
|---------------------------------------------------------| 
|---------------------------------------------------------| x1 
|-0--0-0-1-0-3-3h4-0h2p0--------0--0-0-1-0-4-4h5-4h5------| 
|-0--0-0-1-0-3-3h4-0h2p0--(2)---0--0-0-1-0-4-4h5-4h5--(4)-| 
|-0--0-0-1-0-3-3h4-0h2p0--------0--0-0-1-0-4-4h5-4h5------| 


 
|-------------------------------------------------------| 
|-------------------------------------------------------| 
|-------------------------------------------------------| x1 
|-0--0-0-1-0-3-3h4-0h2p0--------0--0-0-1-0-4-4h5-4h5-5\-| 
|-0--0-0-1-0-3-3h4-0h2p0--(2)---0--0-0-1-0-4-4h5-4h5-5\-| 
|-0--0-0-1-0-3-3h4-0h2p0--------0--0-0-1-0-4-4h5-4h5-5\-| 



Fill 
 
|-----------| 
|-----------| 
|-----------| x1 
|-3h5-3-----| 
|-------3-0-| 
|-----------| 



Chorus - Guitar 1 
 
|---------------------------| 
|---------------------------| 
|-2--2--2--5--5--7--7--7--7-| x4 
|-2--2--2--5--5--7--7--7--7-| 
|-0--0--0--3--3--5--5--5--5-| 
|-0--0--0--3--3--5--5--5--5-| 



Chorus - Guitar 2 
 
|---------------------------------------------------------------------------------------------------| 
|8--8-------------8-------8----------------8-8---------8-------------8-------8-----------------8-8--| 
|7----7--------7--7----7----7----------7-------7----7----7--------7--7----7----7----------7--------7|x1 
|5------5----5----5--5--------5----5-5---5--------5--------5----5----5--5--------5----5-5---5-------| 
|5--------5-------5-------------5----------------------------5-------5-------------5----------------| 
|---------------------------------------------------------------------------------------------------| 



 
|----------------------------------------------------| 
|------8-------------8-------8-----------------8-8---| 
|---7----7--------7--7----7----7----------7--------7-| x2 
|-5--------5----5----5--5--------5----5-5---5--------| 
|------------5-------5-------------5-----------------| 
|----------------------------------------------------| 


Outro 
 
|----------------------------| 
|------1h3-------------1h3---| 
|----------------------------| x1 
|-0--------1-0-------------1-| 
|-0--------1-0-------------1-| 
|-0--------1-0---///X------1-| 



Play 4 times 
 
|-------------------------|      |---------| 
|-------------------------|      |-1h3-----| 
|-------------------------| x2   |---------| x1 
|-0-3-2-0-5-3-0-3-2-0-3-0-|      |------1--| 
|-0-3-2-0-5-3-0-3-2-0-3-0-|      |------1--| 
|-0-3-2-0-5-3-0-3-2-0-3-0-|      |------1--| 

 
		  

See also:

tabs Fall Out Boy - Beat It tabs Bad Religion - American Jesus tabs Afi - Miss murder tabs Green Day - Holiday ( Easy Version) tabs Green Day - Time of your life (good ridance) tabs Blink 182 - Stay together for the kids (ver. 2)
e-chords

Other versions:

tabs KillSwitch Engage - Fixation On The Darkness
auto scroll beats size up size down change color hide chords drawings
tab show chords e-chords YouTube Clip e-chords hide all tabs e-chords go to top tab

share