KillSwitch Engage

The New Awakening

KillSwitch Engage

tabs

by  UBIRBOMFIM

save to print version add songbook text version e-mail correct tuner
chordsukulelecavacokeyboardtabbassdrumsharmonicaflute Guitar Pro
close

there isn't a video lesson for this song

chords

The New Awakening

	  		

Tuning: C G C F A D 







B 
------------------------------------------------------------------| 
------------------------------------------------------------------| 
-5-7-----5-7-----5-7-----5-7----------5-7-----5-7-----------------| 
-X-X-----X-X-----X-X-----X-X----------X-X-----X-X-----------------| 
-3/5-----3/5-----3/5-----3/5----------3/5-----3/5-----------------| 
-----000-----000-----000-----000-3333-----000-----000-3333-1111---| 
     ***     ***     ***     *** ****     ***     *** **** **** 

------------------------------------------------------------------| 
------------------------------------------------------------------| 
-5-7-----5-7-----5-7-----5-7----------5-7-----5-7-----------------| 
-X-X-----X-X-----X-X-----X-X----------X-X-----X-X-----------------| 
-3/5-----3/5-----3/5-----3/5----------3/5-----3/5-----------------| 
-----000-----000-----000-----000-3333-----000-----000-3333-1111---| 
     ***     ***     ***     *** ****     ***     *** **** **** 



1 
------------------------------------------------------------------| 
------------------------------------------------------------------| 
-5-7-----5-7-----5-7-----5-7----------5-7-----5-7-----------------| 
-X-X-----X-X-----X-X-----X-X----------X-X-----X-X-----------------| 
-3/5-----3/5-----3/5-----3/5----------3/5-----3/5-----------------| 
-----000-----000-----000-----000-3333-----000-----000-3333-1111---| 
     ***     ***     ***     *** ****     ***     *** **** **** 
2 
------------------------------------------------------------------| 
------------------------------------------------------------------| 
------------------------------------------------------------------| 
-0----------------------------------------------------------------| 
-0----------------------------------------------------------------| 
-0----------------------------------------------------3333-1111---| 
                                                      **** **** 


1 
------------------------------------------------------------------| 
------------------------------------------------------------------| 
-5-7-----5-7-----5-7-----5-7----------5-7-----5-7-----------------| 
-X-X-----X-X-----X-X-----X-X----------X-X-----X-X-----------------| 
-3/5-----3/5-----3/5-----3/5----------3/5-----3/5-----------------| 
-----000-----000-----000-----000-3333-----000-----000-3333-1111---| 
     ***     ***     ***     *** ****     ***     *** **** **** 
2 
------------------------------------------------------------------| 
------------------------------------------------------------------| 
------------------------------------------------------------------| 
-0----------------------------------------------------------------| 
-0----------------------------------------------------------------| 
-0----------------------------------------------------3333-1111---| 
                                                      **** **** 




0:17 


1 
-------------------------------------------------| 
-------------------------------------------------| 
-------------------------------------------------| 
----------___-------------------___--------------| 
---------/   \-----------------/   \-------------| 
-0-0000-7-8-7-0-000000-0-0000-7-8-7-0-000000-----| 
   ****         ******   ****         ****** 
2 
---------------------------------------------------------------| 
---------------------------------------------------------------| 
---------------------------------------------------------------| 
------------------------P--------------------------------------| 
-------------------------S-------------------------------------| 
--------------------------\------------------------------------| 





0:20 

B 
-----------------------------------------------------------------| 
-----------------------------------------------------------------| 
-----------------------------------------------------------------| 
----------___------------____-------_____-----____-------_____---| 
---------/   \----------/    \-----/     \---/    \-----/     \--| 
-0-0000-7-8-7-0-000000-0-8-10-12-13-12-10-8-0-8-10-12-13-12-10-8-| 
   ****         ******            T                    T 

---------------------------------------------------------| 
---------------------------------------------------------| 
---------------------------------------------------------| 
----------___------------___-----___-----___-----___-----| 
---------/   \----------/   \---/   \---/   \---/   \----| 
-0-0000-7-8-7-0-000000-0-3-5-7-8-7-5-3-0-3-5-7-8-7-5-3---| 
   ****         ******         T               T 



-----------------------------------------------------------------| 
-----------------------------------------------------------------| 
-----------------------------------------------------------------| 
----------___------------____-------_____-----____-------_____---| 
---------/   \----------/    \-----/     \---/    \-----/     \--| 
-0-0000-7-8-7-0-000000-0-8-10-12-13-12-10-8-0-8-10-12-13-12-10-8-| 
   ****         ******            T                    T 

---------------------------------------------------------| 
---------------------------------------------------------| 
---------------------------------------------------------| 
----------___------------___-----___-----___-----___-----| 
---------/   \----------/   \---/   \---/   \---/   \----| 
-0-0000-7-8-7-0-000000-0-3-5-7-8-7-5-3-0-3-5-7-8-7-5-3---| 
   ****         ******         T               T 






0:32 

------------------------------------------------------------| 
------------------------------------------------------------| 
------------------------------------------------------------| 
-0---------0------------------------------------------------| 
-0-0-0-1-1-0-0-0--------------------------------------------| 
-0-0-0-1-1-0-0-0-0-8-10-12-13-12-10-8-0-8-10-12-13-12-10-8--| 
   * * * *   * * * *  *  *  *  *  * * * *  *  *  *  *  * * 

--------------------------------------------------| 
--------------------------------------------------| 
--------------------------------------------------| 
-0---------0--------------------------------------| 
-0-0-0-1-1-0-0-0----------------------------------| 
-0-0-0-1-1-0-0-0-0-3-5-7-8-7-5-3-0-3-5-7-8-7-5-3--| 
   * * * *   * * * * * * * * * * * * * * * * * * 



------------------------------------------------------------| 
------------------------------------------------------------| 
------------------------------------------------------------| 
-0---------0------------------------------------------------| 
-0-0-0-1-1-0-0-0--------------------------------------------| 
-0-0-0-1-1-0-0-0-0-8-10-12-13-12-10-8-0-8-10-12-13-12-10-8--| 
   * * * *   * * * *  *  *  *  *  * * * *  *  *  *  *  * * 

--------------------------------------------------| 
--------------------------------------------------| 
--------------------------------------------------| 
-0---------0--------------------------------------| 
-0-0-0-1-1-0-0-0----------------------------------| 
-0-0-0-1-1-0-0-0-0-3-5-7-8-7-5-3-0-3-5-7-8-7-5-3--| 
   * * * *   * * * * * * * * * * * * * * * * * * 





0:44 


1 
---------------------------------------------------------------| 
---------------------------------------------/13---11---10-----| 
--10---9---7~---------------------------10---------------------| 
-----------------------7---7---/---10--------------------------| 
---------------------------------------------------------------| 
---------------------------------------------------------------| 
HARMONY 
---------------------------------------------/13----12---------| 
-----------------------------------/13\10---------------13-----| 
--14---12---10~------------------------------------------------| 
-------------------------10---10-------------------------------| 
---------------------------------------------------------------| 
---------------------------------------------------------------| 
2 
----------------------------------------------------------------| 
----------------------------------------------------------------| 
----------------------------------------------------------------| 
----------------------------------------------------------------| 
----------------------------------------------------------------| 
-0-0-0-0-0-0-0-0-0-0-0-0-0-0-0-0-3-3-3-3-3-3-3-3-7-7-7-7-7-7-7-7| 


1 
--------------------------------------------------| 
--------------------------------------------------| 
-10/12~~~~~~~-------------------------------------| 
--------------------------------------------------| 
--------------------------------------------------| 
--------------------------------------------------| 
HARMONY 
--------------------------------------------------| 
--------------------------------------------------| 
-14/15~~~~~~~-------------------------------------| 
--------------------------------------------------| 
--------------------------------------------------| 
--------------------------------------------------| 
2 
--------------------------------------------------| 
--------------------------------------------------| 
--------------------------------------------------| 
-------7--------7-------------10--------10--------| 
----5--------5-------5-----8---------8--------8---| 
-5--------5-------5-----8---------8--------8------| 
 *  *     *  *    *     *  *      *  *     * 



0:49 

1 
---------------------------------------------/13---12----------| 
--------------------------------------------------------13-----| 
--10---9---7~---------------------------10---------------------| 
-------------------------7----7--/---10------------------------| 
---------------------------------------------------------------| 
---------------------------------------------------------------| 
HARMONY 
---------------------------------------------/17---15----------| 
-----------------------------------/13\10---------------17-----| 
--14---12---10~------------------------------------------------| 
-------------------------10---10-------------------------------| 
---------------------------------------------------------------| 
---------------------------------------------------------------| 
2 
----------------------------------------------------------------| 
----------------------------------------------------------------| 
----------------------------------------------------------------| 
----------------------------------------------------------------| 
----------------------------------------------------------------| 
-0-0-0-0-0-0-0-0-0-0-0-0-0-0-0-0-3-3-3-3-3-3-3-3-7-7-7-7-7-7-7-7| 


1 
--------------------------------------------------| 
-13\11~~~~~~--------------------------------------| 
--------------------------------------------------| 
--------------------------------------------------| 
--------------------------------------------------| 
--------------------------------------------------| 
HARMONY 
--------------------------------------------------| 
-17\15~~~~~~--------------------------------------| 
--------------------------------------------------| 
--------------------------------------------------| 
--------------------------------------------------| 
--------------------------------------------------| 
2 
--------------------------------------------------| 
--------------------------------------------------| 
--------------------------------------------------| 
-------7--------7-------------10--------10--------| 
----5--------5-------5-----8---------8--------8---| 
-5--------5-------5-----8---------8--------8------| 
 *  *     *  *    *     *  *      *  *     * 



0:55 


1 
---------------------------------------------------------------| 
---------------------------------------------/13---11---10-----| 
--10---9---7~---------------------------10---------------------| 
-----------------------7---7---/---10--------------------------| 
---------------------------------------------------------------| 
---------------------------------------------------------------| 
HARMONY 
---------------------------------------------/13----12---------| 
-----------------------------------/13\10---------------13-----| 
--14---12---10~------------------------------------------------| 
-------------------------10---10-------------------------------| 
---------------------------------------------------------------| 
---------------------------------------------------------------| 
2 
----------------------------------------------------------------| 
----------------------------------------------------------------| 
----------------------------------------------------------------| 
----------------------------------------------------------------| 
----------------------------------------------------------------| 
-0-0-0-0-0-0-0-0-0-0-0-0-0-0-0-0-3-3-3-3-3-3-3-3-7-7-7-7-7-7-7-7| 



1 
--------------------------------------------------| 
--------------------------------------------------| 
-10/12~~~~~~~-------------------------------------| 
--------------------------------------------------| 
--------------------------------------------------| 
--------------------------------------------------| 
HARMONY 
--------------------------------------------------| 
--------------------------------------------------| 
-14/15~~~~~~~-------------------------------------| 
--------------------------------------------------| 
--------------------------------------------------| 
--------------------------------------------------| 
2 
--------------------------------------------------| 
--------------------------------------------------| 
--------------------------------------------------| 
-------7--------7-------------10--------10--------| 
----5--------5-------5-----8---------8--------8---| 
-5--------5-------5-----8---------8--------8------| 
 *  *     *  *    *     *  *      *  *     * 


1:01 

1 
---------------------------------------------/13---12----------| 
--------------------------------------------------------13-----| 
--10---9---7~---------------------------10---------------------| 
-------------------------7----7--/---10------------------------| 
---------------------------------------------------------------| 
---------------------------------------------------------------| 
HARMONY 
---------------------------------------------/17---15----------| 
-----------------------------------/13\10---------------17-----| 
--14---12---10~------------------------------------------------| 
-------------------------10---10-------------------------------| 
---------------------------------------------------------------| 
---------------------------------------------------------------| 
2 
----------------------------------------------------------------| 
----------------------------------------------------------------| 
----------------------------------------------------------------| 
----------------------------------------------------------------| 
----------------------------------------------------------------| 
-0-0-0-0-0-0-0-0-0-0-0-0-0-0-0-0-3-3-3-3-3-3-3-3-7-7-7-7-7-7-7-7| 


1 
--------------------------------------------------| 
-13\11~~~~~~--------------------------------------| 
--------------------------------------------------| 
--------------------------------------------------| 
--------------------------------------------------| 
--------------------------------------------------| 
HARMONY 
--------------------------------------------------| 
-17\15~~~~~~--------------------------------------| 
--------------------------------------------------| 
--------------------------------------------------| 
--------------------------------------------------| 
--------------------------------------------------| 
2 
--------------------------------------------------| 
--------------------------------------------------| 
--------------------------------------------------| 
-------7--------7-------------10--------10--------| 
----5--------5-------5-----8---------8--------8---| 
-5--------5-------5-----8---------8--------8------| 
 *  *     *  *    *     *  *      *  *     * 
3 
--------------------------------------------------| 
--------------------------------------------------| 
-----------------------------10-------10----------| 
--------------------------------------------------| 
--------------------------12-------12-------12----| 
-----------------------8---------8--------8-------| 
                       *   *     *  *     * 





1:07 


L                
------------------------------------------------------------| 
------------------------------------------------------------| 
------------------------------------------------------------| 
-0---------0-------____-------_____-----____-------_____----| 
-0-0-0-1-1-0-0-0--/    \-----/     \---/    \-----/     \---| 
-0-0-0-1-1-0-0-0-0-8-10-12-13-12-10-8-0-8-10-12-13-12-10-8--| 
   * * * *   * *            T                    T 
R 
------------------------------------------------------------| 
------------------------------------------------------------| 
------------------------------------------------------------| 
-0---------0------------------------------------------------| 
-0-0-0-1-1-0-0-0-0------------------------------------------| 
-0-0-0-1-1-0-0-0-0------------------------------------------| 
   * * * *   * * *          


L 
---------------------------------------------------| 
---------------------------------------------------| 
---------------------------------------------------| 
-0---------0---------------------------------------| 
-0-0-0-1-1-0-0-0-0---------------------------------| 
-0-0-0-1-1-0-0-0-0---------------------------------| 
   * * * *   * * * 
R 
---------------------------------------------------| 
---------------------------------------------------| 
---------------------------------------------------| 
-0---------0-------___-----___-----___-----___-----| 
-0-0-0-1-1-0-0-0--/   \---/   \---/   \---/   \----| 
-0-0-0-1-1-0-0-0-0-3-5-7-8-7-5-3-0-3-5-7-8-7-5-3---| 
   * * * *   * *         T               T 



L                
------------------------------------------------------------| 
------------------------------------------------------------| 
------------------------------------------------------------| 
-0---------0-------____-------_____-----____-------_____----| 
-0-0-0-1-1-0-0-0--/    \-----/     \---/    \-----/     \---| 
-0-0-0-1-1-0-0-0-0-8-10-12-13-12-10-8-0-8-10-12-13-12-10-8--| 
   * * * *   * *            T                    T 
R 
------------------------------------------------------------| 
------------------------------------------------------------| 
------------------------------------------------------------| 
-0---------0------------------------------------------------| 
-0-0-0-1-1-0-0-0-0------------------------------------------| 
-0-0-0-1-1-0-0-0-0------------------------------------------| 
   * * * *   * * *          


L 
---------------------------------------| 
---------------------------------------| 
---------------------------------------| 
-0---------0---------------------------| 
-0-0-0-1-1-0-0-0-----------------PH----| 
-0-0-0-1-1-0-0-0-0-0-0-0-0-0-0-0-3~~---| 
   * * * *   * *  
R 
---------------------------------------| 
---------------------------------------| 
---------------------------------------| 
-0---------0---------------------------| 
-0-0-0-1-1-0-0-0-----------------PH----| 
-0-0-0-1-1-0-0-0-0-0-0-0-0-0-0-0-3~~---| 
   * * * *   * *          





1:19 


B 
-----------------------------------------------------------------| 
-----------------------------------------------------------------| 
-----------------------------------------------------------------| 
----------___------------____-------_____-----____-------_____---| 
---------/   \----------/    \-----/     \---/    \-----/     \--| 
-0-0000-7-8-7-0-000000-0-8-10-12-13-12-10-8-0-8-10-12-13-12-10-8-| 
   ****         ******            T                    T 

---------------------------------------------------------| 
---------------------------------------------------------| 
---------------------------------------------------------| 
----------___------------___-----___-----___-----___-----| 
---------/   \----------/   \---/   \---/   \---/   \----| 
-0-0000-7-8-7-0-000000-0-3-5-7-8-7-5-3-0-3-5-7-8-7-5-3---| 
   ****         ******         T               T 


-----------------------------------------------------------------| 
-----------------------------------------------------------------| 
-----------------------------------------------------------------| 
----------___------------____-------_____-----____-------_____---| 
---------/   \----------/    \-----/     \---/    \-----/     \--| 
-0-0000-7-8-7-0-000000-0-8-10-12-13-12-10-8-0-8-10-12-13-12-10-8-| 
   ****         ******            T                    T 

----------------------------------------------| 
----------------------------------------------| 
----------------------------------------------| 
----------___-----------P---------------------| 
---------/   \-----------S--------------------| 
-0-0000-7-8-7-0-000000----\-------------------| 
   ****         ******         







1:31 



1 
---------------------------------------------------------------| 
---------------------------------------------/13---11---10-----| 
--10---9---7~---------------------------10---------------------| 
-----------------------7---7---/---10--------------------------| 
---------------------------------------------------------------| 
---------------------------------------------------------------| 
HARMONY 
---------------------------------------------/13----12---------| 
-----------------------------------/13\10---------------13-----| 
--14---12---10~------------------------------------------------| 
-------------------------10---10-------------------------------| 
---------------------------------------------------------------| 
---------------------------------------------------------------| 
2 
----------------------------------------------------------------| 
----------------------------------------------------------------| 
----------------------------------------------------------------| 
----------------------------------------------------------------| 
----------------------------------------------------------------| 
-0-0-0-0-0-0-0-0-0-0-0-0-0-0-0-0-3-3-3-3-3-3-3-3-7-7-7-7-7-7-7-7| 



1 
--------------------------------------------------| 
--------------------------------------------------| 
-10/12~~~~~~~-------------------------------------| 
--------------------------------------------------| 
--------------------------------------------------| 
--------------------------------------------------| 
HARMONY 
--------------------------------------------------| 
--------------------------------------------------| 
-14/15~~~~~~~-------------------------------------| 
--------------------------------------------------| 
--------------------------------------------------| 
--------------------------------------------------| 
2 
--------------------------------------------------| 
--------------------------------------------------| 
--------------------------------------------------| 
-------7--------7-------------10--------10--------| 
----5--------5-------5-----8---------8--------8---| 
-5--------5-------5-----8---------8--------8------| 
 *  *     *  *    *     *  *      *  *     * 
3 
--------------------------------------------------| 
--------------------------------------------------| 
-------5--------5-------------10--------10--------| 
--------------------------------------------------| 
----8--------8-------8----12--------12-------12---| 
-5--------5-------5-----8---------8--------8------| 
 *  *     *  *    *     *  *      *  *     * 



1 
---------------------------------------------/13---12----------| 
--------------------------------------------------------13-----| 
--10---9---7~---------------------------10---------------------| 
-------------------------7----7--/---10------------------------| 
---------------------------------------------------------------| 
---------------------------------------------------------------| 
HARMONY 
---------------------------------------------/17---15----------| 
-----------------------------------/13\10---------------17-----| 
--14---12---10~------------------------------------------------| 
-------------------------10---10-------------------------------| 
---------------------------------------------------------------| 
---------------------------------------------------------------| 
2 
----------------------------------------------------------------| 
----------------------------------------------------------------| 
----------------------------------------------------------------| 
----------------------------------------------------------------| 
----------------------------------------------------------------| 
-0-0-0-0-0-0-0-0-0-0-0-0-0-0-0-0-3-3-3-3-3-3-3-3-7-7-7-7-7-7-7-7| 


1 
--------------------------------------------------| 
-13\11~~~~~~--------------------------------------| 
--------------------------------------------------| 
--------------------------------------------------| 
--------------------------------------------------| 
--------------------------------------------------| 
HARMONY 
--------------------------------------------------| 
-17\15~~~~~~--------------------------------------| 
--------------------------------------------------| 
--------------------------------------------------| 
--------------------------------------------------| 
--------------------------------------------------| 
2 
--------------------------------------------------| 
--------------------------------------------------| 
--------------------------------------------------| 
-------7--------7-------------10--------10--------| 
----5--------5-------5-----8---------8--------8---| 
-5--------5-------5-----8---------8--------8------| 
 *  *     *  *    *     *  *      *  *     * 
3 
--------------------------------------------------| 
--------------------------------------------------| 
-------5--------5-------------10--------10--------| 
--------------------------------------------------| 
----8--------8-------8-----12--------12-------12--| 
-5--------5-------5-----8---------8--------8------| 
 *  *     *  *    *     *  *      *  *     * 



1 
---------------------------------------------------------------| 
---------------------------------------------/13---11---10-----| 
--10---9---7~---------------------------10---------------------| 
-----------------------7---7---/---10--------------------------| 
---------------------------------------------------------------| 
---------------------------------------------------------------| 

HARMONY 
---------------------------------------------/13----12---------| 
-----------------------------------/13\10---------------13-----| 
--14---12---10~------------------------------------------------| 
-------------------------10---10-------------------------------| 
---------------------------------------------------------------| 
---------------------------------------------------------------| 
2 
----------------------------------------------------------------| 
----------------------------------------------------------------| 
----------------------------------------------------------------| 
----------------------------------------------------------------| 
----------------------------------------------------------------| 
-0-0-0-0-0-0-0-0-0-0-0-0-0-0-0-0-3-3-3-3-3-3-3-3-7-7-7-7-7-7-7-7| 
 * * * * * * * * * * * * * * * * * * * * * * * * * * * * * * * * 


1 
--------------------------------------------------| 
--------------------------------------------------| 
-10/12~~~~~~~-------------------------------------| 
--------------------------------------------------| 
--------------------------------------------------| 
--------------------------------------------------| 
HARMONY 
--------------------------------------------------| 
--------------------------------------------------| 
-14/15~~~~~~~-------------------------------------| 
--------------------------------------------------| 
--------------------------------------------------| 
--------------------------------------------------| 
2 
----------------------------------------| 
----------------------------------------| 
----------------------------------------| 
-5-5-5-5-5-5-5-5-1010101010101010-------| 
-5-5-5-5-5-5-5-5--8-8-8-8-8-8-8-8-------| 
-5-5-5-5-5-5-5-5--8-8-8-8-8-8-8-8-------| 
 * * * * * * * *  * * * * * * * * 




1 
---------------------------------------------/13---12----------| 
--------------------------------------------------------13-----| 
--10---9---7~---------------------------10---------------------| 
-------------------------7----7--/---10------------------------| 
---------------------------------------------------------------| 
---------------------------------------------------------------| 
HARMONY 
---------------------------------------------/17---15----------| 
-----------------------------------/13\10---------------17-----| 
--14---12---10~------------------------------------------------| 
-------------------------10---10-------------------------------| 
---------------------------------------------------------------| 
---------------------------------------------------------------| 
2 
----------------------------------------------------------------| 
----------------------------------------------------------------| 
----------------------------------------------------------------| 
----------------------------------------------------------------| 
----------------------------------------------------------------| 
-0-0-0-0-0-0-0-0-0-0-0-0-0-0-0-0-3-3-3-3-3-3-3-3-7-7-7-7-7-7-7-7| 


1 
--------------------------------------------------| 
-13\11~~~~~~--------------------------------------| 
--------------------------------------------------| 
--------------------------------------------------| 
--------------------------------------------------| 
--------------------------------------------------| 
HARMONY 
--------------------------------------------------| 
-17\15~~~~~~--------------------------------------| 
--------------------------------------------------| 
--------------------------------------------------| 
--------------------------------------------------| 
--------------------------------------------------| 
2 
--------------------------------------------------| 
--------------------------------------------------| 
--------------------------------------------------| 
-------7--------7-------------10--------10--------| 
----5--------5-------5-----8---------8--------8---| 
-5--------5-------5-----8---------8--------8------| 
 *  *     *  *    *     *  *      *  *     * 
3 
--------------------------------------------------| 
--------------------------------------------------| 
-------5--------5-------------10--------10--------| 
--------------------------------------------------| 
----8--------8-------8-----12--------12-------12--| 
-5--------5-------5-----8---------8--------8------| 
 *  *     *  *    *     *  *      *  *     * 






1;54 


1 
------------------------------------------------------------------| 
------------------------------------------------------------------| 
-5-7-----5-7-----5-7-----5-7----------5-7-----5-7-----------------| 
-X-X-----X-X-----X-X-----X-X----------X-X-----X-X-----------------| 
-3/5-----3/5-----3/5-----3/5----------3/5-----3/5-----------------| 
-----000-----000-----000-----000-3333-----000-----000-3333-1111---| 
     ***     ***     ***     *** ****     ***     *** **** **** 
2 
------------------------------------------------------------------| 
------------------------------------------------------------------| 
------------------------------------------------------------------| 
-0----------------------------------------------------------------| 
-0----------------------------------------------------------------| 
-0----------------------------------------------------3333-1111---| 
                                                      **** **** 


1 
------------------------------------------------------------------| 
------------------------------------------------------------------| 
-5-7-----5-7-----5-7-----5-7----------5-7-----5-7-----------------| 
-X-X-----X-X-----X-X-----X-X----------X-X-----X-X-----------------| 
-3/5-----3/5-----3/5-----3/5----------3/5-----3/5-----------------| 
-----000-----000-----000-----000-3333-----000-----000-3333-1111---| 
     ***     ***     ***     *** ****     ***     *** **** **** 
2 
------------------------------------------------------------------| 
------------------------------------------------------------------| 
------------------------------------------------------------------| 
-0----------------------------------------------------------------| 
-0--------------------------------0-0-0-0-0-0-0-0-----------------| 
-0--------------------------------0-0-0-0-0-0-0-0-----3333-1111---| 
                                  * * * * * * * *     **** **** 




2:03 

B 
---------------------------------------------------------| 
---------------------------------------------------------| 
---------------------------------------------------------| 
---------------------------------------------------------| 
---------------------------------------------------------| 
-0-000--0-000--0-000--0-000-3333-0-000--0-000-3333-1111--| 
 * ***  * ***  * ***  * *** **** * ***  * *** **** **** 

----------------------------------------------------------| 
----------------------------------------------------------| 
----------------------------------------------------------| 
----------------------------------------------------------| 
----------------------------------------------------------| 
-0-000--0-000--0-000--0-000-3333--0-000--0-000-3333-1111--| 
 * ***  * ***  * ***  * *** ****  * ***  * *** **** **** 

----------------------------------------------------------| 
----------------------------------------------------------| 
----------------------------------------------------------| 
----------------------------------------------------------| 
----------------------------------------------------------| 
-0-000--0-000--0-000--0-000-3333--0-000--0-000-3333-1111--| 
 * ***  * ***  * ***  * *** ****  * ***  * *** **** **** 

----------------------------------------------------------| 
----------------------------------------------------------| 
----------------------------------------------------------| 
----------------------------------------------------------| 
----------------------------------------------------------| 
-0-000--0-000--0-000--0-000-3333--0-000--0-000-3333-1111--| 
 * ***  * ***  * ***  * *** ****  * ***  * *** **** **** 




2:20 


1 
---------------------------------------------------------------| 
---------------------------------------------------------------| 
-10-9-7~~----7-9-10-9-7~~----7-9-10-9--------7-9-10-9----------| 
-----------7---------------7----------10~~-7----------10~~-----| 
---------------------------------------------------------------| 
---------------------------------------------------------------| 
2 
---------------------------------------------------------------| 
---------------------------------------------------------------| 
-------------------------------5-------------------------------| 
-0-----------------------------5-------------------------------| 
-0-----------------------------3-------------------------------| 
-0-------------------------------------------------------------| 



1                                          __ 
-------------------------------------------)------------| 
------------------------------------------8---8~~-------| 
---7-10-9-7~~----7-9-10-9-7~~----7-9-10~~---------9~----| 
-7-------------7---------------7------------------------| 
--------------------------------------------------------| 
--------------------------------------------------------| 
HARMONY 
--------------------------------------------)-----------| 
------------------------------------------11---11~~-----| 
---------------------------------------------------12---| 
--------------------------------------------------------| 
--------------------------------------------------------| 
--------------------------------------------------------| 
2 
--------------------------------------------------------| 
--------------------------------------------------------| 
--------------------------------------------------------| 
-5-------------------------------------8--------10------| 
-5-------------------------------------8--------10------| 
-5-------------------------------------8--------10------| 




1 
---------------------------------------------------------------| 
---------------------------------------------------------------| 
-10-9-7~~----7-9-10-9-7~~----7-9-10-9--------7-9-10-9----------| 
-----------7---------------7----------10~~-7----------10~~-----| 
---------------------------------------------------------------| 
---------------------------------------------------------------| 
HARMONY 
---------------------------------------------------------------| 
---------------------------------------------------------------| 
14-12-10~---10-12-14-12-10~---10-12-14-12-------10-12-14-12----| 
---------12-----------------12------------14~-12------------14~| 
---------------------------------------------------------------| 
---------------------------------------------------------------| 
2 
---------------------------------------------------------------| 
---------------------------------------------------------------| 
-------------------------------5-------------------------------| 
-0-----------------------------5-------------------------------| 
-0-----------------------------3-------------------------------| 
-0-------------------------------------------------------------| 



1                                          __ 
-------------------------------------------)------------| 
------------------------------------------8---8~~-------| 
---7-10-9-7~~----7-9-10-9-7~~----7-9-10~~---------9~----| 
-7-------------7---------------7------------------------| 
--------------------------------------------------------| 
--------------------------------------------------------| 
HARMONY                                              ) 
---------------------------------------------------12---12~~---| 
------------------------------------------------------------13~| 
----10-12-14-12-10~----10-12-14-12-10~----10-12-14~------------| 
-12-----------------12-----------------12----------------------| 
---------------------------------------------------------------| 
---------------------------------------------------------------| 
2 
----------------------------------------------------------| 
----------------------------------------------------------| 
----------------------------------------------------------| 
-5-------------------------------------8--------10--------| 
-5-------------------------------------8--------10----/-\-| 
-5-------------------------------------8--------10----/-\-| 






2:44 


SOLO                            ______________ 
  ________                     /              \ 
  )      (                     ______ 
10---------10--12--10--10------)     (^------------------------| 
13---------------------------13--------10-13-10-13~~~----------| 
---------------------------------------------------------------| 
---------------------------------------------------------------| 
---------------------------------------------------------------| 
---------------------------------------------------------------| 
                     |    | 
RYTHM 
-----------------------------------------------------------------| 
-----------------------------------------------------------------| 
-----------------------------------------------------------------| 
----------___------------____-------_____-----____-------_____---| 
---------/   \----------/    \-----/     \---/    \-----/     \--| 
-0-0000-7-8-7-0-000000-0-8-10-12-13-12-10-8-0-8-10-12-13-12-10-8-| 
   ****         ******            T                    T 



2:46 

SOLO     __             __             __             __ 
  ^     /  \     ^     /  \     ^     /  \           /  \       
15-13-15131210-15-13-15131210-17-13-17131210-17-13-17131210--| 
-------------------------------------------------------------| 
-------------------------------------------------------------| 
-------------------------------------------------------------| 
-------------------------------------------------------------| 
-------------------------------------------------------------| 
 T     T        T     T        T     T        T     T 
SOLO CONT. 
         __             _____ 
  ^     /  \     ^     /     \          
18-13-18131210-18-13-1813121013/17~-\---| 
----------------------------------------| 
----------------------------------------| 
----------------------------------------| 
----------------------------------------| 
----------------------------------------| 
 T     T        T     T        T 

RYTHM 
---------------------------------------------------------| 
---------------------------------------------------------| 
---------------------------------------------------------| 
----------___------------___-----___-----___-----___-----| 
---------/   \----------/   \---/   \---/   \---/   \----| 
-0-0000-7-8-7-0-000000-0-3-5-7-8-7-5-3-0-3-5-7-8-7-5-3---| 
   ****         ******         T               T 



2:49 

SOLO 

-------------------------------------------------| 
-15-10-13-10----10-15-10-13-10---10-15-10-13-10--| 
-------------13----------------13----------------| 
-------------------------------------------------| 
-------------------------------------------------| 
-------------------------------------------------| 

SOLO CONT. 
-15-10-13-10----10-15-10-13-10---10-15-10-13-10--| 
-------------13----------------13----------------| 
-------------------------------------------------| 
-------------------------------------------------| 
-------------------------------------------------| 
-------------------------------------------------| 

RYTHM 
-----------------------------------------------------------------| 
-----------------------------------------------------------------| 
-----------------------------------------------------------------| 
----------___------------____-------_____-----____-------_____---| 
---------/   \----------/    \-----/     \---/    \-----/     \--| 
-0-0000-7-8-7-0-000000-0-8-10-12-13-12-10-8-0-8-10-12-13-12-10-8-| 
   ****         ******            T                    T 


2:52 

SOLO          __                        _____             _____ 
   )(^       /  \  )(^           ^     /     \     ^     /     \ 
-15---13---15-13-15---13-------18-17-18-17-15-13-20-17-20-17-15-13--| 
--------15---------------15~~---------------------------------------| 
--------------------------------------------------------------------| 
--------------------------------------------------------------------| 
--------------------------------------------------------------------| 
--------------------------------------------------------------------| 
                                T     T           T     T 

SOLO CONT._____             _____ 
---^-----/     \-----^-----/     \--------------------| 
-18-17-18-17-15-13-20-17-20-17-15-13--9---------------| 
--------------------------------------9----V----------| 
------------------------------------------------------| 
------------------------------------------------------| 
------------------------------------------------------| 
  T     T           T     T           H 

RYTHM 
----------------------------------------------------------| 
----------------------------------------------------------| 
----------------------------------------------------------| 
----------___------------___-----___-----___-----___------| 
---------/   \----------/   \---/   \---/   \---/   \--0--| 
-0-0000-7-8-7-0-000000-0-3-5-7-8-7-5-3-0-3-5-7-8-7-5-3-0--| 
   ****         ******         T               T         | 


1 
--------------------------------------------| 
--------------------------------------------| 
--------------------------------------------| 
-----10-----------7--------7---------P------| 
-3---12-------5--------5--------5----S------| 
-3----8----5--------5--------5--------\-----| 
2          *  *     *  *     *   
--------------------------------------------| 
--------------------------------------------| 
10----14---------5--------5-----------------| 
-X-----X-----------------------------P------| 
-8----12------8--------8--------8-----S-----| 
-----------5--------5--------5---------\----| 
           *  *     *  *     *  




3;01 


1 
---------------------------------------------/13---12----------| 
--------------------------------------------------------13-----| 
--10---9---7~---------------------------10---------------------| 
-------------------------7----7--/---10------------------------| 
---------------------------------------------------------------| 
---------------------------------------------------------------| 
HARMONY 
---------------------------------------------/17---15----------| 
-----------------------------------/13\10---------------17-----| 
--14---12---10~------------------------------------------------| 
-------------------------10---10-------------------------------| 
---------------------------------------------------------------| 
---------------------------------------------------------------| 
2 
----------------------------------------------------------------| 
----------------------------------------------------------------| 
----------------------------------------------------------------| 
----------------------------------------------------------------| 
----------------------------------------------------------------| 
-0-0-0-0-0-0-0-0-0-0-0-0-0-0-0-0-3-3-3-3-3-3-3-3-7-7-7-7-7-7-7-7| 


1 
--------------------------------------------------| 
-13\11~~~~~~--------------------------------------| 
--------------------------------------------------| 
--------------------------------------------------| 
--------------------------------------------------| 
--------------------------------------------------| 
HARMONY 
--------------------------------------------------| 
-17\15~~~~~~--------------------------------------| 
--------------------------------------------------| 
--------------------------------------------------| 
--------------------------------------------------| 
--------------------------------------------------| 
2 
--------------------------------------------------| 
--------------------------------------------------| 
--------------------------------------------------| 
-------7--------7-------------10--------10--------| 
----5--------5-------5-----8---------8--------8---| 
-5--------5-------5-----8---------8--------8------| 
 *  *     *  *    *     *  *      *  *     * 
3 
--------------------------------------------------| 
--------------------------------------------------| 
-------5--------5-------------10--------10--------| 
--------------------------------------------------| 
----8--------8-------8----12---------12-------12--| 
-5--------5-------5-----8---------8--------8------| 
 *  *     *  *    *     *  *      *  *     * 



1 
---------------------------------------------------------------| 
---------------------------------------------/13---11---10-----| 
--10---9---7~---------------------------10---------------------| 
-----------------------7---7---/---10--------------------------| 
---------------------------------------------------------------| 
---------------------------------------------------------------| 
HARMONY 
---------------------------------------------/13----12---------| 
-----------------------------------/13\10---------------13-----| 
--14---12---10~------------------------------------------------| 
-------------------------10---10-------------------------------| 
---------------------------------------------------------------| 
---------------------------------------------------------------| 
2 
----------------------------------------------------------------| 
----------------------------------------------------------------| 
----------------------------------------------------------------| 
----------------------------------------------------------------| 
----------------------------------------------------------------| 
-0-0-0-0-0-0-0-0-0-0-0-0-0-0-0-0-3-3-3-3-3-3-3-3-7-7-7-7-7-7-7-7| 
 * * * * * * * * * * * * * * * * * * * * * * * * * * * * * * * * 


1 
--------------------------------------------------| 
--------------------------------------------------| 
-10/12~~~~~~~-------------------------------------| 
--------------------------------------------------| 
--------------------------------------------------| 
--------------------------------------------------| 
HARMONY 
--------------------------------------------------| 
--------------------------------------------------| 
-14/15~~~~~~~-------------------------------------| 
--------------------------------------------------| 
--------------------------------------------------| 
--------------------------------------------------| 
2 
----------------------------------------| 
----------------------------------------| 
----------------------------------------| 
-5-5-5-5-5-5-5-5-1010101010101010-------| 
-5-5-5-5-5-5-5-5--8-8-8-8-8-8-8-8-------| 
-5-5-5-5-5-5-5-5--8-8-8-8-8-8-8-8-------| 
 * * * * * * * *  * * * * * * * * 




1 
---------------------------------------------/13---12----------| 
--------------------------------------------------------13-----| 
--10---9---7~---------------------------10---------------------| 
-------------------------7----7--/---10------------------------| 
---------------------------------------------------------------| 
---------------------------------------------------------------| 
HARMONY 
---------------------------------------------/17---15----------| 
-----------------------------------/13\10---------------17-----| 
--14---12---10~------------------------------------------------| 
-------------------------10---10-------------------------------| 
---------------------------------------------------------------| 
---------------------------------------------------------------| 
2 
----------------------------------------------------------------| 
----------------------------------------------------------------| 
----------------------------------------------------------------| 
----------------------------------------------------------------| 
----------------------------------------------------------------| 
-0-0-0-0-0-0-0-0-0-0-0-0-0-0-0-0-3-3-3-3-3-3-3-3-7-7-7-7-7-7-7-7| 


1 
--------------------------------------------------| 
-13\11~~~~~~--------------------------------------| 
--------------------------------------------------| 
--------------------------------------------------| 
--------------------------------------------------| 
--------------------------------------------------| 
HARMONY 
--------------------------------------------------| 
-17\15~~~~~~--------------------------------------| 
--------------------------------------------------| 
--------------------------------------------------| 
--------------------------------------------------| 
--------------------------------------------------| 
2 
--------------------------------------------------| 
--------------------------------------------------| 
--------------------------------------------------| 
-------7--------7-------------10--------10--------| 
----5--------5-------5-----8---------8--------8---| 
-5--------5-------5-----8---------8--------8------| 
 *  *     *  *    *     *  *      *  *     * 
3 
--------------------------------------------------| 
--------------------------------------------------| 
-------5--------5-------------10--------10--------| 
--------------------------------------------------| 
----8--------8-------8----12---------12-------12--| 
-5--------5-------5-----8---------8--------8------| 
 *  *     *  *    *     *  *      *  *     * 




3:19 


1 
------------------------------------------------------------------| 
------------------------------------------------------------------| 
-5-7-----5-7-----5-7-----5-7----------5-7-----5-7-----------------| 
-X-X-----X-X-----X-X-----X-X----------X-X-----X-X-----------------| 
-3/5-----3/5-----3/5-----3/5----------3/5-----3/5-----------------| 
-----000-----000-----000-----000-3333-----000-----000-3333-1111---| 
     ***     ***     ***     *** ****     ***     *** **** **** 
2 
------------------------------------------------------------------| 
------------------------------------------------------------------| 
------------------------------------------------------------------| 
-0----------------------------------------------------------------| 
-0----------------------------------------------------------------| 
-0----------------------------------------------------3333-1111---| 
                                                      **** **** 


1 
------------------------------------------------------------------| 
------------------------------------------------------------------| 
-5-7-----5-7-----5-7-----5-7----------5-7-----5-7-----------------| 
-X-X-----X-X-----X-X-----X-X----------X-X-----X-X-----------------| 
-3/5-----3/5-----3/5-----3/5----------3/5-----3/5-----------------| 
-----000-----000-----000-----000-3333-----000-----000-3333-1111---| 
     ***     ***     ***     *** ****     ***     *** **** **** 
2 
------------------------------------------------------------------| 
------------------------------------------------------------------| 
------------------------------------------------------------------| 
-0----------------------------------------------------------------| 
-0----------------------------------------------------------------| 
-0----------------------------------------------------3333-1111---| 
                                                      **** **** 
		  

Full key step upFull key step up
Half key step upHalf key step up
Half key step downHalf key step down
Full key step downFull key step down
hide glossary

See also:

tabs Fall Out Boy - Beat It tabs Bad Religion - American Jesus tabs Afi - Miss murder tabs Green Day - Holiday ( Easy Version) tabs Green Day - Time of your life (good ridance) tabs Blink 182 - Stay together for the kids (ver. 2)
e-chords

Other versions:

tabs KillSwitch Engage - The New Awakening
auto scroll beats size up size down change color hide chords drawings
tab show chords e-chords YouTube Clip e-chords hide all tabs e-chords go to top tab

share