KillSwitch Engage

This Is Absolution

KillSwitch Engage

tabs

by  ALEFFEDERICO

save to print version add songbook text version e-mail correct tuner
chordsukulelecavacokeyboardtabbassdrumsharmonicaflute Guitar Pro
close

there isn't a video lesson for this song

chords

This Is Absolution

	  		

 
------------| 
------------| 
-5-----7----| 
-5--5--7--0-| 
-3--5--5--0-| 
----5-----0-| 
 

 
-----------------------------------------------------------------------------| 
-----------------------------------------------------------------------------| 
-----------------------------------------------------------------------------| 
----------------------------------------------------------9-00-5-7-5-4-5-4---| 
----------------------------5p3----------------------------------------------| 
-0h2222222h5p2222222222225h7----0h2222222h5p222222222222---------------------| 
 

 
---------------------------------------------------------------------------| 
---------------------------------------------------------------------------| 
---------------------------------------------------------------------------| 
----------------------------------------------------------9-00-5-7-5-4-5-4-| 
----------------------------5p3--------------------------------------------| 
-0h2222222h5p2222222222225h7----0h2222222h5p222222222222-------------------| 
 

 
-----------------------------------------------------------------------------------------------------------------------------------------| 
-----------------------------------------------------------------------------------------------------------------------------------------| 
-----------------------------------------------------------------------------------------------------------------------------------------| 
-3------5------222222222-5-4h5-3------5------222222222-5--------3------5------222222222-5-4h5-3------5------222222222--------------------| 
-5------7------222222222-5-4h5-5------7------222222222-5--------5------7------222222222-5-4h5-5------7------222222222--------------------| 
---0000---0000-222222222-5-4h5---0000---0000-222222222-5-/4-5-0---0000---0000-222222222-5-4h5---0000---0000-222222222-/4-5-0-------------| 
 
   ....   ....  ... ...          ....   ....  ... ...             ....   ....  ... ...          ....   ....  ... ... 

 
------------| 
------------| 
------------| 
-5-----7--0-| 
-3--5--5--0-| 
----5-----0-| 
 

 
-----------------------------------------------------------------------------------------------------------------------------------------------| 
-----------------------------------------------------------------------------------------------------------------------------------------------| 
-----------------------------------------------------------------------------------------------------------------------------------------------| 
-3------5------222222222-5-4h5-3------5------222222222-5--------3------5------222222222-5-4h5-3------5------222222222----------12-9-10-9-------| 
-5------7------222222222-5-4h5-5------7------222222222-5--------5------7------222222222-5-4h5-5------7------222222222--------------------11-10-| 
---0000---0000-222222222-5-4h5---0000---0000-222222222-5-/4-5-0---0000---0000-222222222-5-4h5---0000---0000-222222222-/4-5-0-------------------| 
 
   ....   ....  ... ...          ....   ....  ... ...             ....   ....  ... ...          ....   ....  ... ... 

 
----------------------------------------------| 
----------------------------------------------| 
-4/55-55-5/777-77-77/999-99-99-1111/1212------| 
-x/xx-55-5/xxx-xx-xx/xxx-xx-xx-x-x-/x-x-------| 
-2/33-33-3/555-55-55/777-77-77-9-9-/1010------| 
----------------------------------------------| 
 

 
-------------------------------------| 
-------------------------------------| 
-4/55-55-5/777-77-77/1111-1212/9~~~~-| 
-x/xx-55-5/xxx-xx-xx/x-x--x-x-/x-----| 
-2/33-33-3/555-55-55/9-9--1010/7~~~~-| 
-------------------------------------| 
 

 
------------------------------------------------------| 
------------------------------------------------------| 
-5-----------5-----------5----------------------------| 
-5--0--2--0--5--0--2--0--5--0--2--5555--0--2--0/------| 
-3--0--2--0--3--0--2--0--3--0--2--3333--0--2--0/------| 
----0--2--0-----0--2--0-----0--2--------0--2--0/------| 
 
 .  .  .  .  .  .  .  .  .  .  .        .  .  . 

 
---------------------------------------------------------------------------| 
---------------------------------------------------------------------------| 
---------------------------------------------------------------------------| 
----------------------------------------------------------9-00-5-7-5-4-5-4-| 
----------------------------5p3--------------------------------------------| 
-0h2222222h5p2222222222225h7----0h2222222h5p222222222222-------------------| 
 

 
---------------------------------------------------------------------------| 
---------------------------------------------------------------------------| 
---------------------------------------------------------------------------| 
----------------------------------------------------------9-00-5-7-5-4-5-4-| 
----------------------------5p3--------------------------------------------| 
-0h2222222h5p2222222222225h7----0h2222222h5p222222222222-------------------| 
 

 
-----------------------------------------------------------------------------------------------------------------------------------------------| 
-----------------------------------------------------------------------------------------------------------------------------------------------| 
-----------------------------------------------------------------------------------------------------------------------------------------------| 
-3------5------222222222-5-4h5-3------5------222222222-5--------3------5------222222222-5-4h5-3------5------222222222----------12-9-10-9-------| 
-5------7------222222222-5-4h5-5------7------222222222-5--------5------7------222222222-5-4h5-5------7------222222222--------------------11-10-| 
---0000---0000-222222222-5-4h5---0000---0000-222222222-5-/4-5-0---0000---0000-222222222-5-4h5---0000---0000-222222222-/4-5-0-------------------| 
 
   ....   ....  ... ...          ....   ....  ... ...             ....   ....  ... ...          ....   ....  ... ... 

 
----------------------------------------------| 
----------------------------------------------| 
-4/55-55-5/777-77-77/999-99-99-1111/1212------| 
-x/xx-55-5/xxx-xx-xx/xxx-xx-xx-x-x-/x-x-------| 
-2/33-33-3/555-55-55/777-77-77-9-9-/1010------| 
----------------------------------------------| 
 

 
-------------------------------------| 
-------------------------------------| 
-4/55-55-5/777-77-77/1111-1212/9~~~~-| 
-x/xx-55-5/xxx-xx-xx/x-x--x-x-/x-----| 
-2/33-33-3/555-55-55/9-9--1010/7~~~~-| 
-------------------------------------| 
 

 
------------------------------------------------------| 
------------------------------------------------------| 
-5-----------5-----------5----------------------------| 
-5--0--2--0--5--0--2--0--5--0--2--5555--0--2--0/------| 
-3--0--2--0--3--0--2--0--3--0--2--3333--0--2--0/------| 
----0--2--0-----0--2--0-----0--2--------0--2--0/------| 
 
 .  .  .  .  .  .  .  .  .  .  .        .  .  . 

 
----------------------------------------------------------------------------------------------------------------------------------------------------| 
----------------------------------------------------------------------------------------------------------------------------------------------------| 
----------------------------------------------------------------------------------------------------------------------------------------------------| 
-22222222222222222222222---------------000000000000000000000000------------------------------------------------------000000000000000000000000-------| 
-22222222222222222222222---------------000000000000000000000000---------------333333333333333333333333---------------000000000000000000000000-------| 
-22222222222222222222222--4/5-4-4/5-4--000000000000000000000000--4/5-4-4/5-4--555555555555555555555555--4/5-4-4/5-4--000000000000000000000000-------| 
 
  ......................                .......................                .......................                ....................... 

then 

guitarra 1 
 
----------------------------------------------------------------------------------------------------------------------------------------------------| 
----------------------------------------------------------------------------------------------------------------------------------------------------| 
----------------------------------------------------------------------------------------------------------------------------------------------------| 
-22222222222222222222222---------------000000000000000000000000------------------------------------------------------000000000000000000000000-------| 
-22222222222222222222222---------------000000000000000000000000---------------333333333333333333333333---------------000000000000000000000000-------| 
-22222222222222222222222--4/5-4-4/5-4--000000000000000000000000--4/5-4-4/5-4--555555555555555555555555--4/5-4-4/5-4--000000000000000000000000-------| 
 
  ......................                .......................                .......................                ....................... 

guitar 2 
 
----------------------------------------------------------------------------------------------------| 
----------------------------------------------------------------------------------------------------| 
--7-7-7-7---2-2--4-4-------7-7-7-7---2-2--4-4-------7-7-7-7---2-2--4-4-------7-7-7-7---2-2--4-4-----| 
---5-5-5-5---4-4--5-5-------5-5-5-5---4-4--5-5-------5-5-5-5---4-4--5-5-------5-5-5-5---4-4--5-5----| 
----------------------------------------------------------------------------------------------------| 
----------------------------------------------------------------------------------------------------| 
 


 
------------------------------------------------------------------------------------------------------------------------------------------------------------------| 
------------------------------------------------------------------------------------------------------------------------------------------------------------------| 
------------------------------------------------------------------------------------------------------------------------------------------------------------------| 
-22222222222222222222222---------------000000000000000000000000------------------------------------------------------000000000000000000000000-000000000000/\------| 
-22222222222222222222222---------------000000000000000000000000---------------333333333333333333333333---------------000000000000000000000000-000000000000/\------| 
-22222222222222222222222--4/5-4-4/5-4--000000000000000000000000--4/5-4-4/5-4--555555555555555555555555--4/5-4-4/5-4--000000000000000000000000-000000000000/\------| 
 
  ......................                .......................                .......................                ....................... 

guitar 2 
 
----------------------------------------------------------------------------------------------------| 
----------------------------------------------------------------------------------------------------| 
--7-7-7-7---2-2--4-4-------7-7-7-7---2-2--4-4-------7-7-7-7---2-2--4-4-------7-7-7-7---2-2--4-4-----| 
---5-5-5-5---4-4--5-5-------5-5-5-5---4-4--5-5-------5-5-5-5---4-4--5-5-------5-5-5-5---4-4--5-5----| 
----------------------------------------------------------------------------------------------------| 
----------------------------------------------------------------------------------------------------| 
 

and then 
 
----------------------------------------------| 
----------------------------------------------| 
-4/55-55-5/777-77-77/999-99-99-1111/1212------| 
-x/xx-55-5/xxx-xx-xx/xxx-xx-xx-x-x-/x-x-------| 
-2/33-33-3/555-55-55/777-77-77-9-9-/1010------| 
----------------------------------------------| 
 

 
-------------------------------------| 
-------------------------------------| 
-4/55-55-5/777-77-77/1111-1212/9~~~~-| 
-x/xx-55-5/xxx-xx-xx/x-x--x-x-/x-----| 
-2/33-33-3/555-55-55/9-9--1010/7~~~~-| 
-------------------------------------| 
 

------------------------------------------------------------------| 
------------------------------------------------------------------| 
-5~----------5----------5-----------------------------------------| 
-5~-0--2--0--5--0--2--0--5--0--2--5555--0--2--0--8-0-time-guitar--| 
-3~-0--2--0--3--0--2--0--3--0--2--3333--0--2--0--8-0--------------| 
----0--2--0-----0--2--0-----0--2--------0--2--0--8-0--------------| 
		  

See also:

tabs Fall Out Boy - Beat It tabs Bad Religion - American Jesus tabs Afi - Miss murder tabs Green Day - Holiday ( Easy Version) tabs Green Day - Time of your life (good ridance) tabs Blink 182 - Stay together for the kids (ver. 2)
e-chords

Other versions:

tabs KillSwitch Engage - This Is Absolution
auto scroll beats size up size down change color hide chords drawings
tab show chords e-chords YouTube Clip e-chords hide all tabs e-chords go to top tab

share