KillSwitch Engage

Break The Silence

KillSwitch Engage

tabs

by  EDSOOLIVEIRA

save to print version add songbook text version e-mail correct tuner
chordsukulelecavacokeyboardtabbassdrumsharmonicaflute Guitar Pro
close

there isn't a video lesson for this song

chords

Break The Silence

	  		

 
     intro riff 
|-------------------------------------------------------------------| 
|-------------------------------------------------------------------| 
|-------------------------------------------------------------------| 
|-3p0-3p0-3p0-00-7p0-5p0-3p0-5p0-5p0-5p0-00-8p0-7p0-5p0-7p0-7p0-7p0-| 
|----5---5----------------------7---7----------------------8---8----| 
|-------------------------------------------------------------------| 
     .   .    ..                .   .    ..                .   . 


 
                       1 ver-first ending              1 ver-second-  
|-----------------|--------------------------------|----------------| 
|-----------------|--------------------------------|----------------| 
|-----------------|--------------------------------|----------------| 
|-00-10p0-8p0-7p0-|-0h3t7/8\7p3--------------------|-0h3t7/8\7p3----| 
|-----------------|------------1/3--0h3t7/8\7p3----|----------------| 
|-----------------|----------(t8/10)-----------3/5-|-----------t8/10| 
  ..                     (not sure which) 


 
  -ending      2 ver-first ending        2 ver- second ending 
|----------|---------------------------|--------------------|-------| 
|----------|---------------------------|--------------------|-------| 
|----------|-----2h32------------------|----2h32------------|-------| 
|----------|--0h3----3--------2h32-----|-0h3----3----3-3-3--|-------| 
|-8-8--8-\-|----------1/3--0h3----3----|---------1/3-1-3-0--|-------| 
|-8-10-7-\-|-----------------------3/5-|--------------------|-------| 
		  

See also:

tabs Green Day - 21 Guns tabs Green Day - Macy's Day Parade tabs Blink 182 - All The Small Things (Original) tabs Blink 182 - Down tabs Blink 182 - Dammit tabs Blink 182 - All the small things (ver. 2)
e-chords

Other versions:

tabs Thousand Foot Krutch - Break The Silence tabs KillSwitch Engage - Break The Silence
auto scroll beats size up size down change color hide chords drawings
tab show chords e-chords YouTube Clip e-chords hide all tabs e-chords go to top tab

share