KillSwitch Engage

Blood Stains

KillSwitch Engage

tabs

by  VSWORLD

save to print version add songbook text version e-mail correct tuner
chordsukulelecavacokeyboardtabbassdrumsharmonicaflute Guitar Pro
close

there isn't a video lesson for this song

chords

Blood Stains

	  		

Tuning: C G C F A D 

TABBED BY andherembrace 





----------------------------------------------------------| 
----------------------------------------------------------| 
----------------------------------------------------------| 
----------------------------------------------------------| 
----------------------------------------------------------| 
-00000----------00000----------00000----------00000-------| 
 *****          *****          *****          ***** 




0:04 


1 
-6------5------5------8-------6------5------5------8------| 
---6------6------6------6-------6------6------6------6----| 
-----7------7------7------7-------7------7------7------7--| 
----------------------------------------------------------| 
----------------------------------------------------------| 
----------------------------------------------------------| 
2 
----------------------------------------------------------| 
----------------------------------------------------------| 
----------------------------------------------------------| 
----------------------------------------------------------| 
----------------------------------------------------------| 
-00000----------00000----------00000----------00000-------| 
 *****          *****          *****          ***** 



1 
-6------5------5------8-------6------5------5------8------| 
---6------6------6------6-------6------6------6------6----| 
-----7------7------7------7-------7------7------7------7--| 
----------------------------------------------------------| 
----------------------------------------------------------| 
----------------------------------------------------------| 

2 
----------------------------------------------------------| 
----------------------------------------------------------| 
----------------------------------------------------------| 
------0-0-----------0-0-----------0-0-----------0-0-------| 
------0-0-----------0-0-----------0-0-----------0-0-------| 
-0000-0-0------0000-0-0------0000-0-0------0000-0-0-------| 
 ****          ****          ****          **** 



1 
-6------5------5------8-------6------5------5------8------| 
---6------6------6------6-------6------6------6------6----| 
-----7------7------7------7-------7------7------7------7--| 
----------------------------------------------------------| 
----------------------------------------------------------| 
----------------------------------------------------------| 

2 
----------------------------------------------------------| 
----------------------------------------------------------| 
----------------------------------------------------------| 
------0-0-----------0-0-----------0-0-----------0-0-------| 
------0-0-----------0-0-----------0-0-----------0-0-------| 
-0000-0-0------0000-0-0------0000-0-0------0000-0-0-------| 
 ****          ****          ****          **** 





0:15 


1 
-------------------------------------------------------------------------| 
-----------____--------------____--------------____--------------____----| 
----------/    \------------/    \------------/    \------------/    \---| 
------12-7-12-7-0-------10-5-10-5-0-------12-7-12-7-0-------10-5-10-5-0--| 
-------------------------------------------------------------------------| 
00000-------------00000-------------00000-------------00000--------------| 
*****             *****             *****             ***** 
2 
-------------------------------------------------------------------------| 
-------------------------------------------------------------------------| 
-------------------------------------------------------------------------| 
-------------------------------------------------------------------------| 
0------------------------------------------------------------------------| 
0------------------------------------------------------------------------| 
* 


B 
----------------------| 
----------------------| 
----------------------| 
----------------------| 
------8----------10---| 
-8888-8-10101010-10---| 
 ****    * * * * 



1 
-------------------------------------------------------------------------| 
-----------____--------------____--------------____--------------____----| 
----------/    \------------/    \------------/    \------------/    \---| 
------12-7-12-7-0-------10-5-10-5-0-------12-7-12-7-0-------10-5-10-5-0--| 
-------------------------------------------------------------------------| 
00000-------------00000-------------00000-------------00000--------------| 
*****             *****             *****             ***** 
2 
-------------------------------------------------------------------------| 
-------------------------------------------------------------------------| 
-------------------------------------------------------------------------| 
-------------------------------------------------------------------------| 
0------------------------------------------------------------------------| 
0------------------------------------------------------------------------| 


B 
----------------------| 
----------------------| 
----------------------| 
----------------------| 
------8----------10---| 
-8888-8-10101010-10---| 
 ****    * * * * 



0:25 


B 
-------------------------------------------------------------------------| 
-----------____--------------____--------------____--------------____----| 
----------/    \------------/    \------------/    \------------/    \---| 
------12-7-12-7-0-------10-5-10-5-0-------12-7-12-7-0-------10-5-10-5-0--| 
-------------------------------------------------------------------------| 
00000-------------00000-------------00000-------------00000--------------| 
*****             *****             *****             ***** 

----------------------| 
----------------------| 
----------------------| 
----------------------| 
------8----------10---| 
-8888-8-10101010-10---| 
 ****    * * * * 

-------------------------------------------------------------------------| 
-----------____--------------____--------------____--------------____----| 
----------/    \------------/    \------------/    \------------/    \---| 
------12-7-12-7-0-------10-5-10-5-0-------12-7-12-7-0-------10-5-10-5-0--| 
-------------------------------------------------------------------------| 
00000-------------00000-------------00000-------------00000--------------| 
*****             *****             *****             ***** 

-------------------| 
-------------------| 
-------------------| 
-------------------| 
-0-6-5-0-3-5-0-1---| 
-0-6-5-0-3-5-0-1---| 
 * * * * * * * * 




0:35 


L 
-------------------------------------------------------------------------| 
-----------_____-------------_____-------------_____-------------_____---| 
----------/     \-----------/     \-----------/     \-----------/     \--| 
-----15-12-15-12-0-----14-10-14-10-0-----15-12-15-12-0-----14-10-14-10-0-| 
-------------------------------------------------------------------------| 
00000-------------00000-------------00000-------------00000--------------| 
*****             *****             *****             ***** 
R 
-------------------------------------------------------------------------| 
-----------____--------------____--------------____--------------____----| 
----------/    \------------/    \------------/    \------------/    \---| 
------12-7-12-7-0-------10-5-10-5-0-------12-7-12-7-0-------10-5-10-5-0--| 
-------------------------------------------------------------------------| 
00000-------------00000-------------00000-------------00000--------------| 
*****             *****             *****             ***** 


B 
----------------------| 
----------------------| 
----------------------| 
----------------------| 
------8----------10---| 
-8888-8-10101010-10---| 
 ****    * * * * 


L 
-------------------------------------------------------------------------| 
-----------_____-------------_____-------------_____-------------_____---| 
----------/     \-----------/     \-----------/     \-----------/     \--| 
-----15-12-15-12-0-----14-10-14-10-0-----15-12-15-12-0-----14-10-14-10-0-| 
-------------------------------------------------------------------------| 
00000-------------00000-------------00000-------------00000--------------| 
*****             *****             *****             ***** 
R 
-------------------------------------------------------------------------| 
-----------____--------------____--------------____--------------____----| 
----------/    \------------/    \------------/    \------------/    \---| 
------12-7-12-7-0-------10-5-10-5-0-------12-7-12-7-0-------10-5-10-5-0--| 
-------------------------------------------------------------------------| 
00000-------------00000-------------00000-------------00000--------------| 
*****             *****             *****             ***** 




0:45 


B 
-------------------------------------------------------------| 
-------------------------------------------------------------| 
-------------------------------------------------------------| 
-------------------------------------------------------------| 
-0-6-5-0-3-5-0-1--0-0-0--0-0-0--6-5-0-3-5-0-1--0-0-0--0-0-0--| 
-0-6-5-0-3-5-0-1--0-0-0--0-0-0--6-5-0-3-5-0-1--0-0-0--0-0-0--| 
 * * * * * * * *  * * *  * * *  * * * * * * *  * * *  * * * 

-------------------------------------------------------------| 
-------------------------------------------------------------| 
-------------------------------------------------------------| 
------------------------------------------1------0------0----| 
-6-5-0-3-5-0-1--1-1-1--1-1-3--6-5-0-3-5-0-1--0-0-0--0-0-0----| 
-6-5-0-3-5-0-3--3-3-3--3-3-5--6-5-0-3-5-0-1--0-0-0--0-0-0----| 
 * * * * * * *  * * *  * * *  * * * * * *    * *    * *  



------------------------------------------------------------------------| 
-------------------------------------------------------------^----------| 
------------------------------------------------------------232------2/5| 
-------------1------0------0-----------------------------------3---3----| 
-6-5-0-3-5-0-1--0-0-0--0-0-0--6-5-0-3-5-0-1--1-1--1--1-1--3------5------| 
-6-5-0-3-5-0-1--0-0-0--0-0-0--6-5-0-3-5-0-3--3-3--3--3-3--5-------------| 
 * * * * * *    * *    * *    * * * * * *    * *     * *   |     * *           





1:01 


1 
-6------5------5------8-------6------5------5------8------| 
---6------6------6------6-------6------6------6------6----| 
-----7------7------7------7-------7------7------7------7--| 
----------------------------------------------------------| 
----------------------------------------------------------| 
----------------------------------------------------------| 

2 
----------------------------------------------------------| 
----------------------------------------------------------| 
----------------------------------------------------------| 
-3------3-3-3------3-3------10------10-10-10------10-10---| 
-3------3-3-3------3-3-------8-------8--8--8-------8--8---| 
-3------3-3-3------3-3-------8-------8--8--8-------8--8---| 




1 
-6------5------5------8-------6------5------5------8------| 
---6------6------6------6-------6------6------6------6----| 
-----7------7------7------7-------7------7------7------7--| 
----------------------------------------------------------| 
----------------------------------------------------------| 
----------------------------------------------------------| 

2 
----------------------------------------------------------| 
----------------------------------------------------------| 
----------------------------------------------------------| 
-0------0-0-0------0-0--------3------3-3-3------3-3-------| 
-0------0-0-0------0-0--------3------3-3-3------3-3-------| 
-0------0-0-0------0-0--------3------3-3-3------3-3-------| 




1 
-6------5------5------8------5-----------| 
---6------6------6------6----6-----------| 
-----7------7------7------7--7-----------| 
-----------------------------------------| 
-----------------------------------------| 
-----------------------------------------| 

2 
------------------------------------------| 
------------------------------------------| 
-7-7---7-----10-10---10-------------------| 
-5-5---5------8--8----8------0----P-------| 
-5-5---5------8--8----8------0-----S------| 
-5-5---5--/---8--8----8------0------\-----| 







1:12 


B 
-------------------------------------------------------------------------| 
-----------____--------------____--------------____--------------____----| 
----------/    \------------/    \------------/    \------------/    \---| 
------12-7-12-7-0-------10-5-10-5-0-------12-7-12-7-0-------10-5-10-5-0--| 
-------------------------------------------------------------------------| 
00000-------------00000-------------00000-------------00000--------------| 
*****             *****             *****             ***** 

----------------------| 
----------------------| 
----------------------| 
----------------------| 
------8----------10---| 
-8888-8-10101010-10---| 
 ****    * * * * 

-------------------------------------------------------------------------| 
-----------____--------------____--------------____--------------____----| 
----------/    \------------/    \------------/    \------------/    \---| 
------12-7-12-7-0-------10-5-10-5-0-------12-7-12-7-0-------10-5-10-5-0--| 
-------------------------------------------------------------------------| 
00000-------------00000-------------00000-------------00000--------------| 
*****             *****             *****             ***** 

-------------------| 
-------------------| 
-------------------| 
-------------------| 
-0-6-5-0-3-5-0-1---| 
-0-6-5-0-3-5-0-1---| 
 * * * * * * * * 




1:23 


L 
-------------------------------------------------------------------------| 
-----------_____-------------_____-------------_____-------------_____---| 
----------/     \-----------/     \-----------/     \-----------/     \--| 
-----15-12-15-12-0-----14-10-14-10-0-----15-12-15-12-0-----14-10-14-10-0-| 
-------------------------------------------------------------------------| 
00000-------------00000-------------00000-------------00000--------------| 
*****             *****             *****             ***** 
R 
-------------------------------------------------------------------------| 
-----------____--------------____--------------____--------------____----| 
----------/    \------------/    \------------/    \------------/    \---| 
------12-7-12-7-0-------10-5-10-5-0-------12-7-12-7-0-------10-5-10-5-0--| 
-------------------------------------------------------------------------| 
00000-------------00000-------------00000-------------00000--------------| 
*****             *****             *****             ***** 


B 
----------------------| 
----------------------| 
----------------------| 
----------------------| 
------8----------10---| 
-8888-8-10101010-10---| 
 ****    * * * * 


L 
--------------------------------------------------------------------------| 
-----------_____-------------_____-------------_____-------------_____----| 
----------/     \-----------/     \-----------/     \-----------/     \---| 
-----15-12-15-12-0-----14-10-14-10-0-----15-12-15-12-0-----14-10-14-10-0-P| 
-------------------------------------------------------------------------S| 
00000-------------00000-------------00000-------------00000--------------\| 
*****             *****             *****             ***** 
R 
--------------------------------------------------------------------------| 
-----------____--------------____--------------____--------------____-----| 
----------/    \------------/    \------------/    \------------/    \----| 
------12-7-12-7-0-------10-5-10-5-0-------12-7-12-7-0-------10-5-10-5-0-P-| 
------------------------------------------------------------------------S-| 
00000-------------00000-------------00000-------------00000--------------\| 
*****             *****             *****             ***** 





1:33 



1 
-6------5------5------8-------6------5------5------8------| 
---6------6------6------6-------6------6------6------6----| 
-----7------7------7------7-------7------7------7------7--| 
----------------------------------------------------------| 
----------------------------------------------------------| 
----------------------------------------------------------| 

2 
----------------------------------------------------------| 
----------------------------------------------------------| 
----------------------------------------------------------| 
-3------3-3-3------3-3------10------10-10-10------10-10---| 
-3------3-3-3------3-3-------8-------8--8--8-------8--8---| 
-3------3-3-3------3-3-------8-------8--8--8-------8--8---| 



1 
-6------5------5------8-------6------5------5------8------| 
---6------6------6------6-------6------6------6------6----| 
-----7------7------7------7-------7------7------7------7--| 
----------------------------------------------------------| 
----------------------------------------------------------| 
----------------------------------------------------------| 

2 
----------------------------------------------------------| 
----------------------------------------------------------| 
----------------------------------------------------------| 
-0------0-0-0------0-0--------3------3-3-3------3-3-------| 
-0------0-0-0------0-0--------3------3-3-3------3-3-------| 
-0------0-0-0------0-0--------3------3-3-3------3-3-------| 




1 
-6------5------5------8-------6------5------5------8------| 
---6------6------6------6-------6------6------6------6----| 
-----7------7------7------7-------7------7------7------7--| 
----------------------------------------------------------| 
----------------------------------------------------------| 
----------------------------------------------------------| 

2 
-------------------------------------------------| 
-------------------------------------------------| 
-7-7---7-----10-10---10--------------------------| 
-5-5---5------8--8----8------0-0--0---0--0--0--0-| 
-5-5---5------8--8----8------0-0--0---0--0--0--0-| 
-5-5---5--/---8--8----8------0-0--0---0--0--0--0-| 





1 
-6------5------5------8-------6------5------5------8------| 
---6------6------6------6-------6------6------6------6----| 
-----7------7------7------7-------7------7------7------7--| 
----------------------------------------------------------| 
----------------------------------------------------------| 
----------------------------------------------------------| 

2 
----------------------------------------------------------| 
----------------------------------------------------------| 
----------------------------------------------------------| 
-3------3-3-3------3-3------10------10-10-10------10-10---| 
-3------3-3-3------3-3-------8-------8--8--8-------8--8---| 
-3------3-3-3------3-3-------8-------8--8--8-------8--8---| 



1 
-6------5------5------8-------6------5------5------8------| 
---6------6------6------6-------6------6------6------6----| 
-----7------7------7------7-------7------7------7------7--| 
----------------------------------------------------------| 
----------------------------------------------------------| 
----------------------------------------------------------| 

2 
----------------------------------------------------------| 
----------------------------------------------------------| 
----------------------------------------------------------| 
-0------0-0-0------0-0--------3------3-3-3------3-3-------| 
-0------0-0-0------0-0--------3------3-3-3------3-3-------| 
-0------0-0-0------0-0--------3------3-3-3------3-3-------| 




1 
-6------5------5------8-------6------5------5------8------| 
---6------6------6------6-------6------6------6------6----| 
-----7------7------7------7-------7------7------7------7--| 
----------------------------------------------------------| 
----------------------------------------------------------| 
----------------------------------------------------------| 

2 
----------------------------------------------------------| 
----------------------------------------------------------| 
-7-7---7-----10-10----10----------------------------------| 
-5-5---5------8--8-----8----------------------------------| 
-5-5---5------8--8-----8------0---------------------------| 
-5-5---5--/---8--8-----8------0---------------------------| 
                              * 





-6------5------5------8--------| 
---6------6------6------6------| 
-----7------7------7------7----| 
-------------------------------| 
-------------------------------| 
-------------------------------| 



1:56 


1 
--------------------------------------------------| 
--------------------------------------------------| 
-555555555555555555555555777777777777777777777777-| 
-XXXXXXXXXXXXXXXXXXXXXXXXXXXXXXXXXXXXXXXXXXXXXXXX-| 
-333333333333333333333333555555555555555555555555-| 
--------------------------------------------------| 

2 
--------------------------------------------------| 
--------------------------------------------------| 
--------------------------------------------------| 
--------------------------------------------------| 
--------------------------------------------------| 
-333333333333333333333333888888888888888888888888-| 



1 
--------------------------------------------------| 
--------------------------------------------------| 
-666666666666666666666666777777777777777777777777-| 
-XXXXXXXXXXXXXXXXXXXXXXXXXXXXXXXXXXXXXXXXXXXXXXXX-| 
-444444444444444444444444555555555555555555555555-| 
--------------------------------------------------| 

2 
--------------------------------------------------| 
--------------------------------------------------| 
--------------------------------------------------| 
--------------------------------------------------| 
--------------------------------------------------| 
-777777777777777777777777555555555555555555555555-| 





1 
--------------------------------------------------| 
--------------------------------------------------| 
-555555555555555555555555777777777777777777777777-| 
-XXXXXXXXXXXXXXXXXXXXXXXXXXXXXXXXXXXXXXXXXXXXXXXX-| 
-333333333333333333333333555555555555555555555555-| 
--------------------------------------------------| 

2 
--------------------------------------------------| 
--------------------------------------------------| 
--------------------------------------------------| 
--------------------------------------------------| 
--------------------------------------------------| 
-333333333333333333333333888888888888888888888888-| 



1 
--------------------------------------------------| 
--------------------------------------------------| 
-666666666666666666666666-------------------------| 
-XXXXXXXXXXXXXXXXXXXXXXXX-------------------------| 
-444444444444444444444444-------------------------| 
---------------------------0000-0000-0000-0000----| 
                           **** **** **** **** 
2 
------------------------------------------------| 
------------------------------------------------| 
------------------------------------------------| 
------------------------------------------------| 
------------------------------------------------| 
-777777777777555555555555--0000-0000-0000-0000--| 
                           **** **** **** **** 




2:11 

1 
--------------------------------------------------| 
--------------------------------------------------| 
-555555555555555555555555777777777777777777777777-| 
-XXXXXXXXXXXXXXXXXXXXXXXXXXXXXXXXXXXXXXXXXXXXXXXX-| 
-333333333333333333333333555555555555555555555555-| 
--------------------------------------------------| 

2 
--------------------------------------------------| 
--------------------------------------------------| 
--------------------------------------------------| 
--------------------------------------------------| 
--------------------------------------------------| 
-333333333333333333333333888888888888888888888888-| 



1 
--------------------------------------------------| 
--------------------------------------------------| 
-666666666666666666666666777777777777777777777777-| 
-XXXXXXXXXXXXXXXXXXXXXXXXXXXXXXXXXXXXXXXXXXXXXXXX-| 
-444444444444444444444444555555555555555555555555-| 
--------------------------------------------------| 

2 
--------------------------------------------------| 
--------------------------------------------------| 
--------------------------------------------------| 
--------------------------------------------------| 
--------------------------------------------------| 
-777777777777777777777777555555555555555555555555-| 





1 
--------------------------------------------------| 
--------------------------------------------------| 
-555555555555555555555555777777777777777777777777-| 
-XXXXXXXXXXXXXXXXXXXXXXXXXXXXXXXXXXXXXXXXXXXXXXXX-| 
-333333333333333333333333555555555555555555555555-| 
--------------------------------------------------| 

2 
--------------------------------------------------| 
--------------------------------------------------| 
--------------------------------------------------| 
--------------------------------------------------| 
--------------------------------------------------| 
-333333333333333333333333888888888888888888888888-| 



1 
-------------------------------------------------------------------| 
-------------------------------------------------------------------| 
-666666666666666666666666------------------------------------------| 
-XXXXXXXXXXXXXXXXXXXXXXXX------------------------------------------| 
-444444444444444444444444------------------------------------------| 
---------------------------0000-0000-0000-0000-0000-0000-0000-0000-| 
                           **** **** **** **** **** **** **** **** 
2 
-------------------------------------------------------------------| 
-------------------------------------------------------------------| 
-------------------------------------------------------------------| 
-------------------------------------------------------------------| 
-------------------------------------------------------------------| 
-777777777777555555555555--0000-0000-0000-0000-0000-0000-0000-0000-| 
                           **** **** **** **** **** **** **** **** 





2:28 



-6------5------6------5-------6------5------6------8------| 
---6------6------6------6-------6------6------6------6----| 
-----7------7------7------7-------7------7------7------7--| 
----------------------------------------------------------| 
----------------------------------------------------------| 
----------------------------------------------------------| 





1 
-6------5------5------8-------6------5------5------8------| 
---6------6------6------6-------6------6------6------6----| 
-----7------7------7------7-------7------7------7------7--| 
----------------------------------------------------------| 
----------------------------------------------------------| 
----------------------------------------------------------| 

2 
----------------------------------------------------------| 
----------------------------------------------------------| 
----------------------------------------------------------| 
-3------3-3-3------3-3------10------10-10-10------10-10---| 
-3------3-3-3------3-3-------8-------8--8--8-------8--8---| 
-3------3-3-3------3-3-------8-------8--8--8-------8--8---| 



1 
-6------5------5------8-------6------5------5------8------| 
---6------6------6------6-------6------6------6------6----| 
-----7------7------7------7-------7------7------7------7--| 
----------------------------------------------------------| 
----------------------------------------------------------| 
----------------------------------------------------------| 

2 
----------------------------------------------------------| 
----------------------------------------------------------| 
----------------------------------------------------------| 
-0------0-0-0------0-0--------3------3-3-3------3-3-------| 
-0------0-0-0------0-0--------3------3-3-3------3-3-------| 
-0------0-0-0------0-0--------3------3-3-3------3-3-------| 




1 
-6------5------5------8-------6------5------5------8------| 
---6------6------6------6-------6------6------6------6----| 
-----7------7------7------7-------7------7------7------7--| 
----------------------------------------------------------| 
----------------------------------------------------------| 
----------------------------------------------------------| 

2 
------------------------------------------| 
------------------------------------------| 
-7-7---7-----10-10---10-------------------| 
-5-5---5------8--8----8------0----P-------| 
-5-5---5------8--8----8------0-----S------| 
-5-5---5--/---8--8----8------0------\-----| 






1 
-6------5------5------8-------6------5------5------8------| 
---6------6------6------6-------6------6------6------6----| 
-----7------7------7------7-------7------7------7------7--| 
----------------------------------------------------------| 
----------------------------------------------------------| 
----------------------------------------------------------| 

2 
----------------------------------------------------------| 
----------------------------------------------------------| 
----------------------------------------------------------| 
-3------3-3-3------3-3------10------10-10-10------10-10---| 
-3------3-3-3------3-3-------8-------8--8--8-------8--8---| 
-3------3-3-3------3-3-------8-------8--8--8-------8--8---| 



1 
-6------5------5------8-------6------5------5------8------| 
---6------6------6------6-------6------6------6------6----| 
-----7------7------7------7-------7------7------7------7--| 
----------------------------------------------------------| 
----------------------------------------------------------| 
----------------------------------------------------------| 

2 
----------------------------------------------------------| 
----------------------------------------------------------| 
----------------------------------------------------------| 
-0------0-0-0------0-0--------3------3-3-3------3-3-------| 
-0------0-0-0------0-0--------3------3-3-3------3-3-------| 
-0------0-0-0------0-0--------3------3-3-3------3-3-------| 




1 
-6------5------5------8-------6------5------5------8------| 
---6------6------6------6-------6------6------6------6----| 
-----7------7------7------7-------7------7------7------7--| 
----------------------------------------------------------| 
----------------------------------------------------------| 
----------------------------------------------------------| 

2 
-----------------------------------------| 
-----------------------------------------| 
-7-7---7-----10-10----10-----------------| 
-5-5---5------8--8-----8------0----------| 
-5-5---5------8--8-----8------0---\------| 
-5-5---5--/---8--8-----8------0---\------| 
                               




-----------------------------5-----------| 
-----------------------------6-----------| 
------------7------10--------7-----------| 
-3----------5-------8--------0-----------| 
-3----------5-------8--------0-----------| 
-3----------5-------8--------0-----------| 
		  

Full key step upFull key step up
Half key step upHalf key step up
Half key step downHalf key step down
Full key step downFull key step down
hide glossary

See also:

tabs Fall Out Boy - Beat It tabs Bad Religion - American Jesus tabs Afi - Miss murder tabs Green Day - Holiday ( Easy Version) tabs Green Day - Time of your life (good ridance) tabs Blink 182 - Stay together for the kids (ver. 2)
e-chords

Other versions:

tabs KillSwitch Engage - Blood Stains
auto scroll beats size up size down change color hide chords drawings
tab show chords e-chords YouTube Clip e-chords hide all tabs e-chords go to top tab

share