save to print version add songbook text version e-mail correct tuner
chordsukulelecavacokeyboardtabbassdrumsharmonicaflute Guitar Pro
close

there isn't a video lesson for this song

chords

Be One

	  		

Intro  

Guitar 1  

 
D|-------------------------------------------| 
A|-------------------------------------------| 
F|-------------------------------------------| 
C|-------------------------------------------| 
G|-12p10-8p0-10p0-8p0-7-12p10-8p0-10p0-8p0-7-| 
C|-------------------------------------------| 


 
D|-----------------------------------------------| 
A|-----------------------------------------------| 
F|-----------------------------------------------| 
C|-----------------------------------------------| 
G|-12-10-8p0-10p0-8p0-7p0-8p0-7p0-5p0-7p0-5p0-3--| 
C|-----------------------------------------------| 



 
D|-----------------------------------------------------------------------| 
A|-----------------------------------------------------------------------| 
F|-----------------------------------------------------------------------|3x 
C|-----------------------------------------------------------------------| 
G|-3-1-0--0-3-1-0-0-3-1-0--12-10-8p0-10p0-8p0-7p0-8p0-7p0-5p0-7p0-5p0-3--| 
C|-3-1-0--0-3-1-0-0-3-1-0------------------------------------------------| 
   x x x  x x x x x x x x 


 
D|-----------------------------| 
A|-----------------------------| 
F|-----------------------------| 
C|-----------------------0-----| 
G|-3-1-0--0-3-1-0--0-0-0-0-----| 
C|-3-1-0--0-3-1-0--0-0-0-0-----| 
   x x x  x x x x  x x x 


 
D|-----------| 
A|-----------| 
F|-----------|   
C|-----------|   Play multiple times                                   
G|-3-1-0-0---|                                      
C|-3-1-0-0---| 
   x x x x 


 
D|-----| 
A|-----| 
F|-----| 
C|-7---|4x 
G|-5---| 
C|-----| 
   


Guitar 2 

D|-----------| 
A|-----------| 
F|-----------| 
C|-----------| 
G|-7----7----| 
C|-7----7----| 
 
   x    x 
D|------------------------------------------------| 
A|------------------------------------------------| 
F|------------------------------------------------| 
C|--10-8-7p0-8p0-7p0-5p0-7p0-5p0-3p0-5p0-3p0-2----| 
G|------------------------------------------------| 
C|------------------------------------------------| 



 
D|-----------------------------| 
A|-----------------------------| 
F|-----------------------------|2x 
C|-------------------------5-7-| 
G|-3-1-0--0-3-1-0-0-3-1-0--3-5-| 
C|-3-1-0--0-3-1-0-0-3-1-0------| 
   x x x  x x x x x x x x 


 
D|-----------------------------------------------------------------------| 
A|-----------------------------------------------------------------------| 
F|-----------------------------------------------------------------------| 
C|-------------------------10-8-7p0-8p0-7p0-5p0-7p0-5p0-3p0-5p0-3p0-2----| 
G|-3-1-0--0-3-1-0-0-3-1-0------------------------------------------------| 
C|-3-1-0--0-3-1-0-0-3-1-0------------------------------------------------| 
   x x x  x x x x x x x x 


 
D|------------------------------------------| 
A|------------------------------------------| 
F|------------------------------------------| 
C|----------------/-------------------------| 
G|-3-1-0--0-3-1-0-/-0-3-1-0-0-3-1-0-0-3-1-0-| 
C|-3-1-0--0-3-1-0-/-0-3-1-0-0-3-1-0-0-3-1-0-| 
   x x x  x x x x   x x x x x x x x x x x x 


 
D|-----------| 
A|-----------| 
F|-----------|  Play multiple times 
C|-----------|                                      
G|-3-1-0-0---|                                      
C|-3-1-0-0---| 
   x x x x 


 
D|-----| 
A|-----| 
F|-----| 
C|-7---|4x 
G|-5---| 
C|-----| 


Verse 

Both Guitars (Play twice) 
 
  
D|-------------------------------| 
A|-------------------------------| 
F|-------------------------------| 
C|----------------------8-5-7----| 
G|-0-0-0--0-0-0--0-0-0--6-3-5----| 
C|-0-0-0--0-0-0--0-0-0-----------| 
   x x x  x x x  x x x 


 
D|-------------------------------| 
A|-------------------------------| 
F|-------------------------------| 
C|----------------------3-5------| 
G|-0-0-0--0-0-0--0-0-0--1-3-0----| 
C|-0-0-0--0-0-0--0-0-0------0----| 
   x x x  x x x  x x x 


 
D|-------------------------------| 
A|-------------------------------| 
F|-------------------------------| 
C|----------------------8-5-3----| 
G|-0-0-0--0-0-0--0-0-0--6-3-1----| 
C|-0-0-0--0-0-0--0-0-0-----------| 
   x x x  x x x  x x x 


 
D|-------------------------| 
A|-------------------------| 
F|--7h8p7------------------| 
C|--------10-8-7-----------| 
G|---------------10-8-7----| 
C|-------------------------| 


Chorus 

Both Guitars (Play twice) 


 
D|---------------------------------------------------| 
A|---------------------------------------------------| 
F|---------------------------------------------------| 
C|---------------------------------------------------| 
G|-0---------------------10h12p10/8h10p8/7h8p7/5h7p5-| 
C|-0-0-0-0-0-0-0-0-0-0-0-----------------------------| 
     x x x x x x x x x x 



 
D|---------------------------------------------------| 
A|---------------------------------------------------| 
F|---------------------------------------------------| 
C|-----------------------8h10p8/7h8p7/5h7p5/3h5p3----| 
G|-7-------------------------------------------------| 
C|-7-7-7-7-7-7-7-7-7-7-7-----------------------------| 
     x x x x x x x x x x 


Guitar 1 

 
D|----------------------------------------------------------------| 
A|----------------------------------------------------------------| 
F|--7-9h10-7-5-2h3--14h15-12-10-5h7-9h10-7-5-2h3-14h15-12-10-5h7--| 
C|----------------------------------------------------------------| 
G|----------------------------------------------------------------| 
C|----------------------------------------------------------------| 


Verse 

Both Guitars  

 
D|-----------| 
A|-----------| 
F|-----------|   
C|-----------|  Play multiple times                                    
G|-3-1-0-0---|                                      
C|-3-1-0-0---| 
   x x x x 


 
D|-----| 
A|-----| 
F|-----| 
C|-7---|4x 
G|-5---| 
C|-----|  


Guitar 1 2x 

 
D|-------------------------------| 
A|-------------------------------| 
F|-------------------------------| 
C|----------------------8-5-7----| 
G|-0-0-0--0-0-0--0-0-0--6-3-5----| 
C|-0-0-0--0-0-0--0-0-0-----------| 
   x x x  x x x  x x x 


 
D|-------------------------------| 
A|-------------------------------| 
F|-------------------------------| 
C|----------------------3-5------| 
G|-0-0-0--0-0-0--0-0-0--1-3-0----| 
C|-0-0-0--0-0-0--0-0-0------0----| 
   x x x  x x x  x x x 


 
D|-------------------------------| 
A|-------------------------------| 
F|-------------------------------| 
C|----------------------8-5-3----| 
G|-0-0-0--0-0-0--0-0-0--6-3-1----| 
C|-0-0-0--0-0-0--0-0-0-----------| 
   x x x  x x x  x x x 


 
D|-------------------------| 
A|-------------------------| 
F|--7h8p7------------------| 
C|--------10-8-7-----------| 
G|---------------10-8-7----| 
C|-------------------------| 


Guitar 2 1x 

 
D|-------------------------------| 
A|-------------------------------| 
F|-------------------------------| 
C|----------------------8-5-7----| 
G|-0-0-0--0-0-0--0-0-0--6-3-5----| 
C|-0-0-0--0-0-0--0-0-0-----------| 
   x x x  x x x  x x x 


 
D|-------------------------------| 
A|-------------------------------| 
F|-------------------------------| 
C|----------------------3-5------| 
G|-0-0-0--0-0-0--0-0-0--1-3-0----| 
C|-0-0-0--0-0-0--0-0-0------0----| 
   x x x  x x x  x x x 


 
D|-------------------------------| 
A|-------------------------------| 
F|-------------------------------| 
C|----------------------8-5-3----| 
G|-0-0-0--0-0-0--0-0-0--6-3-1----| 
C|-0-0-0--0-0-0--0-0-0-----------| 
   x x x  x x x  x x x 


 
D|-------------------------| 
A|-------------------------| 
F|--7h8p7------------------| 
C|--------10-8-7-----------| 
G|---------------10-8-7----| 
C|-------------------------| 



 
D|--------------------------| 
A|--------------------------| 
F|-7\8/5\7/3\5\7\8/5/3\5----| 
C|-x\x/x\x/x\x\x\x/x/x\x----| 
G|-5\6/3\5/1\3\5\6/3/1\3----| 
C|--------------------------| 


Repeat Chorus 

Haven't found out the Bridge yet 

Outro: 

Guitar 1 

 
D|----------------------------------------------------------------| 
A|----------------------------------------------------------------| 
F|--7-9h10-7-5-2h3--14h15-12-10-5h7-9h10-7-5-2h3-14h15-12-10-5h7--| 
C|----------------------------------------------------------------| 
G|----------------------------------------------------------------| 
C|----------------------------------------------------------------| 


I'll work on the bridge and some missing parts but for now this should get you started. 
		  

See also:

tabs Fall Out Boy - Beat It tabs Bad Religion - American Jesus tabs Afi - Miss murder tabs Green Day - Holiday ( Easy Version) tabs Green Day - Time of your life (good ridance) tabs Blink 182 - Stay together for the kids (ver. 2)
e-chords

Other versions:

tabs KillSwitch Engage - Be One
auto scroll beats size up size down change color hide chords drawings
tab show chords e-chords YouTube Clip e-chords hide all tabs e-chords go to top tab

share