Killer Be Killed

Wings Of Feather And Wax

Killer Be Killed

tabs nolevel nolevel

by  PAULLET3

save to print version add songbook text version e-mail correct tuner
chordsukulelecavacokeyboardtabbassdrumsharmonicaflute Guitar Pro
close

there isn't a video lesson for this song

chords

Wings Of Feather And Wax

	  		

. palm mute 
/\ slide 

d------------------------------------------------------------------------------------| 
A------------------------------------------------------------------------------------| 
F------------------------------------------------------------------------------------| 
C-0--0--0--7-0-0-0-0-0-0-5-7-8-5-7-0-0-0-0-0-0-5-7-8-5-7-0-0-0-0-0-0-5-7-8-5-7-0-0-0-| 
G-0--0--0--7-0-0-0-0-0-0-5-7-8-5-7-0-0-0-0-0-0-5-7-8-5-7-0-0-0-0-0-0-5-7-8-5-7-0-0-0-| 
C-0--0--0--7-0-0-0-0-0-0-5-7-8-5-7-0-0-0-0-0-0-5-7-8-5-7-0-0-0-0-0-0-5-7-8-5-7-0-0-0-| 
  .  .  .    . . . . . .           . . . . . .           . . . . . .           . . . 
d------------| 
A------------| 
F------------| 
C-0-0-0-3--2-|   X2 
G-0-0-0-3--2-| 
C-0-0-0-3--2-| 
  . . . 

d--------------------------------------------------| 
A--------------------------------------------------| 
F-7-7-7-7-7-7-7-7-7-7-7-7-9-9-9-9-9-9--10-10-10-10-| 
C-X-X-X-X-X-X-X-X-X-X-X-X-X-X-X-X-X-X--X--X--X--X--|   X4 
G-5-5-5-5-5-5-5-5-5-5-5-5-7-7-7-7-7-7--7--7--7--7--| 
C--------------------------------------------------| 

d-----| 
A-----| 
F-7-9-| 
C-7-9-| 
G-5-7-| 
C-----| 

d-------------------------------------------------------------------------------| 
A-------------------------------------------------------------------------------| 
F-------------------------------------------------------------------------------| 
C-7-0-0-0-0-0-0-5-7-8-5-7-0-0-0-0-0-0-5-7-8-5-7-0-0-0-0-0-0-5-7-8-5-7-0-0-0-0-0-| 
G-7-0-0-0-0-0-0-5-7-8-5-7-0-0-0-0-0-0-5-7-8-5-7-0-0-0-0-0-0-5-7-8-5-7-0-0-0-0-0-| 
C-7-0-0-0-0-0-0-5-7-8-5-7-0-0-0-0-0-0-5-7-8-5-7-0-0-0-0-0-0-5-7-8-5-7-0-0-0-0-0-| 
    . . . . . .           . . . . . .           . . . . . .           . . . . . 
d--------| 
A--------| 
F--------| 
C-0-3--2-|   X3. (first time with lead over lay thing) 
G-0-3--2-| 
C-0-3--2-| 
  . 

The solo part here the rhythm just feeds back 


d-------------------------------------------------| 
A-------------------------------------------------| 
F-------------------------------------------------| 
C-6-6/7\6-6/7\6-6/7\6-6/7\6-6/7\6-6/7\6-6/7-9-8-8-|  X2 
G-6-6/7\6-6/7\6-6/7\6-6/7\6-6/7\6-6/7\6-6/7-9-8-8-| 
C-6-6/7\6-6/7\6-6/7\6-6/7\6-6/7\6-6/7\6-6/7-9-8-8-| 

d-------------------------------------------------| 
A-------------------------------------------------| 
F-------------------------------------------------| 
C-6-6/7\6-6/7\6-6/7\6-6/7\6-6/7\6-6/7\6-6/7-9-8-8-|  X1 
G-6-6/7\6-6/7\6-6/7\6-6/7\6-6/7\6-6/7\6-6/7-9-8-8-| 
C-6-6/7\6-6/7\6-6/7\6-6/7\6-6/7\6-6/7\6-6/7-9-8-8-| 
    . . . . . . . . . . . . . . . . . . . . . . . 

d-----------------------------------------------------------------| 
A-----------------------------------------------------------------| 
F-----------------------------------------------------------------| 
C-6-6-6-6-9-9-9-9-6-6-6-6-9-9-9-9-6-6-6-6-9-9-9-9-6-6-6-6-9-9-9-9-|  
G-6-6-6-6-9-9-9-9-6-6-6-6-9-9-9-9-6-6-6-6-9-9-9-9-6-6-6-6-9-9-9-9-| 
C-6-6-6-6-9-9-9-9-6-6-6-6-9-9-9-9-6-6-6-6-9-9-9-9-6-6-6-6-9-9-9-9-| 

d-------------------------------------------------------------------------| 
A-------------------------------------------------------------------------| 
F-------------------------------------------------------------------------| 
C-6-6-6-6-9-9-9-9-6-6-6-6-9-9-9-9-6-6-6-6-9-9-9-9-12-12-12-12-12-12-12-12-| 
G-6-6-6-6-9-9-9-9-6-6-6-6-9-9-9-9-6-6-6-6-9-9-9-9-12-12-12-12-12-12-12-12-| 
C-6-6-6-6-9-9-9-9-6-6-6-6-9-9-9-9-6-6-6-6-9-9-9-9-12-12-12-12-12-12-12-12-| 

d--------------------------------------------------| 
A--------------------------------------------------| 
F-7-7-7-7-7-7-7-7-7-7-7-7-9-9-9-9-9-9--10-10-10-10-| 
C-X-X-X-X-X-X-X-X-X-X-X-X-X-X-X-X-X-X--X--X--X--X--|   X8 
G-5-5-5-5-5-5-5-5-5-5-5-5-7-7-7-7-7-7--7--7--7--7--| 
C--------------------------------------------------| 


d--------| 
A--------| 
F-7-9-10-| 
C-7-9-10-| 
G-5-7-8--| 
C--------| 

That's it :) 
		  

See also:

tabs Doa - Sexyest Girl tabs Deep Purple - Smoke on the water (intro) tabs Deep Purple - Highway Star tabs Albert Hammond Jr - Holiday tabs Deep Purple - Deep Purple - Smoke On The Water tabs Deep Purple - Ted The Mechanic
e-chords

Other versions:

tabs Killer Be Killed - Wings Of Feather And Wax
auto scroll beats size up size down change color hide chords drawings
tab show chords e-chords YouTube Clip e-chords hide all tabs e-chords go to top tab

share with facebook