Killer Be Killed

Face Down

Killer Be Killed

tabs nolevel nolevel

by  ROBEPOIEL

save to print version add songbook text version e-mail correct tuner
chordsukulelecavacokeyboardtabbassdrumsharmonicaflute Guitar Pro
close

there isn't a video lesson for this song

chords

Face Down

	  		

Guitars 1 and 2 (w/ dist) 

Pick slide in the beginning 

D|---------------------------|----------------------------| 
A|---------------------------|----------------------------| 
F|---------------------------|----------------------------| 
C|---------------------------|----------------------------| 
G|---------------------------|----------------------------| 
C|-12--0--0--13--0--0--12--0-|-12--0--0--13--0--0--12--0--| 

D|---------------------------|------------------------------| 
A|---------------------------|------------------------------| 
F|---------------------------|------------------------------| 
C|---------------------------|------------------------------| 
G|---------------------------|------------------------------| 
C|-12--0--0--13--0--0--12--0-|-12--0--0--12--13--0--12--13--| 

D|---------------------------|----------------------------| 
A|---------------------------|----------------------------| 
F|---------------------------|----------------------------| 
C|---------------------------|----------------------------| 
G|---------------------------|----------------------------| 
C|-12--0--0--13--0--0--12--0-|-12--0--0--13--0--0--12--0--| 

D|---------------------------|------------------------------| 
A|---------------------------|------------------------------| 
F|---------------------------|------------------------------| 
C|---------------------------|------------------------------| 
G|---------------------------|------------------------------| 
C|-12--0--0--13--0--0--12--0-|-12--0--0--12--13--0--12--13--| 
                                         *   *   *  *   * 
D|---------------------------|----------------------------| 
A|---------------------------|----------------------------| 
F|---------------------------|----------------------------| 
C|---------------------------|----------------------------|\ 
G|---------------------------|----------------------------| \ 
C|-12--0--0--13--0--0--12--0-|-12--0--0--13--0--0--12--0--|  \  
       *  *      *  *      *       *  *      *  *      *      x2 
D|---------------------------|------------------------------|/ 
A|---------------------------|------------------------------| 
F|---------------------------|------------------------------| 
C|---------------------------|------------------------------| 
G|---------------------------|------------------------------| 
C|-12--0--0--13--0--0--12--0-|-12--0--0--12--13--0--12--13--| 
       *  *      *  *      *       *  *          * 

----------------------------------------------------------------------------------------- 
|                                   VERSE (00:24-00:44)                                 | 
----------------------------------------------------------------------------------------- 

Guitars 1 and 2 (w/ dist) 

D|---------------------------|----------------------------| 
A|---------------------------|----------------------------| 
F|---------------------------|----------------------------| 
C|---------------------------|----------------------------|\ 
G|---------------------------|----------------------------| \ 
C|-12--0--0--13--0--0--12--0-|-12--0--0--13--0--0--12--0--|  \  
       *  *      *  *      *       *  *      *  *      *      x4 
D|---------------------------|------------------------------|/ 
A|---------------------------|------------------------------| 
F|---------------------------|------------------------------| 
C|---------------------------|------------------------------| 
G|---------------------------|------------------------------| 
C|-12--0--0--13--0--0--12--0-|-12--0--0--12--13--0--12--13--| 
       *  *      *  *      *       *  *          * 

----------------------------------------------------------------------------------------- 
|                                 Pre-Chorus (00:44-00:53)                              | 
----------------------------------------------------------------------------------------- 

Guitars 1 and 2 (w/ dist) 

D|-----------|-----------| 
A|-----------|-----------| 
F|-----------|-----------| x4 
C|-7----5----|-8----4----| 
G|-5----3----|-6----2----| 
C|-----------|-----------| 

----------------------------------------------------------------------------------------- 
|                                    Chorus (00:53-01:14)                               | 
----------------------------------------------------------------------------------------- 

Guitars 1 and 2 (w/ dist) 

D|-------------------|-------------------|-------------------|-------------------------| 
A|-------------------|-------------------|-------------------|-------------------------| 
F|-------------------|-------------------|-------------------|-------------------------| 
C|-0---0---------1---|-0---0---------1---|-0---0---------1---|-------------------------| 
G|-0---0---4--3--1---|-0---0---4--3--1---|-0---0---4--3--1---|-------------------------| 
C|-0---0---4--3--1---|-0---0---4--3--1---|-0---0---4--3--1---|-0--1--0--0--1--0--1--4--| 
           *  *                *  *                *  *        *     *  *     *  

----------------------------------------------------------------------------------------- 
|                                   verse 2 (01:14-01:34)                               | 
----------------------------------------------------------------------------------------- 

Guitars 1 and 2 (w/ dist) 

D|------------------------|-------------------------|------------------------|-------------------------| 
A|------------------------|-------------------------|------------------------|-------------------------| 
F|------------------------|-------------------------|------------------------|-------------------------| x2 
C|------------------------|-------------------------|------------------------|-------------------------| 
G|------------------------|-------------------------|------------------------|-------------------------| 
C|-0--0--0--1--0--0--0--0-|-0--0--0--1--0--0--0--0--|-0--0--0--1--0--0--0--0-|-0--0--0--0--1--0--0--1--| 
      *  *     *  *     *      *  *     *  *     *       *  *     *  *     *      *  *        * 
D|---------------------------|----------------------------| 
A|---------------------------|----------------------------| 
F|---------------------------|----------------------------| 
C|---------------------------|----------------------------|\ 
G|---------------------------|----------------------------| \ 
C|-12--0--0--13--0--0--12--0-|-12--0--0--13--0--0--12--0--|  \  
       *  *      *  *      *       *  *      *  *      *      x2 
D|---------------------------|------------------------------|/ 
A|---------------------------|------------------------------| 
F|---------------------------|------------------------------| 
C|---------------------------|------------------------------| 
G|---------------------------|------------------------------| 
C|-12--0--0--13--0--0--12--0-|-12--0--0--12--13--0--12--13--| 
       *  *      *  *      *       *  *          * 

----------------------------------------------------------------------------------------- 
|                                 Pre-Chorus 2 (01:34-01:43)                            | 
----------------------------------------------------------------------------------------- 
                                     same as Pre-Chorus 
----------------------------------------------------------------------------------------- 
|                                   Chorus 2 (01:43-02:14)                              | 
----------------------------------------------------------------------------------------- 

Guitars 1 and 2 (w/ dist) 

D|-------------------|-------------------|-------------------|-------------------------| 
A|-------------------|-------------------|-------------------|-------------------------| 
F|-------------------|-------------------|-------------------|-------------------------| 
C|-0---0---------1---|-0---0---------1---|-0---0---------1---|-------------------------| 
G|-0---0---4--3--1---|-0---0---4--3--1---|-0---0---4--3--1---|-------------------------| 
C|-0---0---4--3--1---|-0---0---4--3--1---|-0---0---4--3--1---|-0--1--0--0--1--0--1--4--| 
           *  *                *  *                *  *        *     *  *     *  
D|-------------------|-------------------|-------------------|-------------------------| 
A|-------------------|-------------------|-------------------|-------------------------| 
F|-------------------|-------------------|-------------------|-------------------------| 
C|-0---0---------1---|-0---0---------1---|-0---0---------1---|-------------------1-s4--| 
G|-0---0---4--3--1---|-0---0---4--3--1---|-0---0---4--3--1---|-------------------1-s4--| 
C|-0---0---4--3--1---|-0---0---4--3--1---|-0---0---4--3--1---|-0--1--0--0--1--0--1-s4--| 
           *  *                *  *                *  *        *     *  *     *  
                                       
----------------------------------------------------------------------------------------- 
|                                    BRIDGE (02:14-03:39)                               | 
----------------------------------------------------------------------------------------- 

I. Guitars 1 and 2 (w/ dist) 

D|------------------------|-----------------------|----------------------|------------------------| 
A|------------------------|-----------------------|----------------------|------------------------| 
F|------------------------|-----------------------|----------------------|------------------------| 
C|------------------------|-----------------------|----------------------|------------------------| 
G|------------------------|-----------------------|----------------------|------------------------| 
C|-0--0--0--0--0--0--0--0-|-0--0--0--0--0-/s7---6-|--0--0--0--0--0--0--0-|-0--0--0--0--0-/s7---6--| 

D|----------------------|-----------------------|----------------------|------------------------| 
A|----------------------|-----------------------|----------------------|------------------------| 
F|----------------------|-----------------------|----------------------|------------------------| 
C|----------------------|-----------------------|----------------------|------------------------| 
G|----------------------|-----------------------|----------------------|------------------------| 
C|--0--0--0--0--0--0--0-|-0--0--0--0--0-/s7---6-|--0--0--0--0--0--0--0-|-0--0--0--0--0-/s7---1--| 

   Guitar 3 (w/ dist and wah-wah) 

D|-------------------------|-------------------------| 
A|-------------------------|-------------------------| 
F|-/s7---7--7--7--7--7--7--|-/s7---7--7--7--7--7--7--| 
C|-------------------------|-------------------------| 
G|-------------------------|-------------------------| 
C|-------------------------|-------------------------| 

D|--------------------------------|-----------------------------| 
A|--------------------------------|-----------------------------| 
F|-/s14---14--14--14--14--14--14--|-/s16---16--16--16~~~16--16--| 
C|--------------------------------|-----------------------------| 
G|--------------------------------|-----------------------------| 
C|--------------------------------|-----------------------------| 

D|-------------------------|-------------------------| 
A|-------------------------|-------------------------| 
F|-/s7---7--7--7--7--7--7--|-/s7---7--7--7--7--7--7--| 
C|-------------------------|-------------------------| 
G|-------------------------|-------------------------| 
C|-------------------------|-------------------------| 

D|--------------------------------|-----------------------| 
A|--------------------------------|-----------------------| 
F|-/s14---14--14--14--14--14--14--|-/s16---16--16--16~~~~~| 
C|--------------------------------|-----------------------| 
G|--------------------------------|-----------------------| 
C|--------------------------------|-----------------------| 

II. Guitars 1 and 2 (w/ dist) 

D|----------------------|------------------------| 
A|----------------------|------------------------|  
F|----------------------|------------------------| x3 
C|----------------------|------------------------| 
G|----------------------|------------------------| 
C|--1--1--1--1--1--1--1-|-1--1--1--1-/s5--4---1--| 

D|----------------------|------------------------| 
A|----------------------|------------------------| 
F|----------------------|------------------------| 
C|----------------------|------------------------| 
G|----------------------|------------------------| 
C|--1--1--1--1--1--1--1-|-1--1--1--1-/s5--4---0--| 

D|---------------------------|-------------------------| 
A|---------------------------|-------------------------| 
F|---------------------------|-------------------------| x3 
C|---------------------------|-------------------------| 
G|---------------------------|-------------------------| 
C|--0-0-0--0-0-0--0-0-0--0-0-|-0--0-0-0--0--0-/s7---6--| 
    * * *  * * *  * * *  * *   *  * * *  *       
D|---------------------------|-------------------------| 
A|---------------------------|-------------------------| 
F|---------------------------|-------------------------| 
C|---------------------------|-------------------------| 
G|---------------------------|-------------------------| 
C|--0-0-0--0-0-0--0-0-0--0-0-|-0--0-0-0--0--0-/s7---1--| 
    * * *  * * *  * * *  * *   *  * * *  * 
D|----------------------|------------------------| 
A|----------------------|------------------------|  
F|----------------------|------------------------| x3 
C|----------------------|------------------------| 
G|----------------------|------------------------| 
C|--1--1--1--1--1--1--1-|-1--1--1--1-/s5--4---1--| 

D|----------------------|------------------------| 
A|----------------------|------------------------| 
F|----------------------|------------------------| 
C|----------------------|------------------------| 
G|----------------------|------------------------| 
C|--1--1--1--1--1--1--1-|-1--1--1--1-/s5--4---0--| 

D|-------------------------| 
A|-------------------------| 
F|-------------------------| x4 
C|-------------------------| 
G|-------------------------| 
C|-0--0--0--0--0--0--0--0--| 
   *  *  *  *  *  *  *  * 
D|---------------------|------------------------|     |---------------------|-----------| 
A|---------------------|------------------------|     |---------------------|-----------| 
F|---------------------|------------------------| x3  |---------------------|-----------| 
C|-7---------7---------|-7---------7----5---8---|     |-7---------7---------|-3----1----| 
G|-5---------5---------|-5---------5----3---6---|     |-5---------5---------|-3----1----|\ 
C|-----0--0------0--0--|-----0--0---------------|     |-----0--0------0--0--|-3----1----| \ 
       *  *      *  *        *  *                           *  *      *  *                 x2 
D|---------------------|------------------------|     |---------------------|-----------| / 
A|---------------------|------------------------|     |---------------------|-----------|/ 
F|---------------------|------------------------| x3  |---------------------|-----------| 
C|-7---------7---------|-7---------7----5---8---|     |-7---------7---------|-3----4----| 
G|-5---------5---------|-5---------5----3---6---|     |-5---------5---------|-3----4----| 
C|-----0--0------0--0--|-----0--0---------------|     |-----0--0------0--0--|-3----4----| 
       *  *      *  *        *  *                           *  *      *  * 

----------------------------------------------------------------------------------------- 
|                                     OUTRO (03:39-04:35)                               | 
----------------------------------------------------------------------------------------- 

Guitars 1 and 2 (w/ dist) - change the 6th string to A on this last riff 

 B|-----------------------------|    |-------------------------| 
F#|-----------------------------|    |-------------------------| 
 D|-----------------------------| x3 |-------------------------| 
 A|-----------------------------|    |-------------------------| 
 E|-----------------------------|    |-------------------------| 
 A|-0--12--0--0--13--0--12--13--|    |-0--0--0--0--0--0--0--0--| 
    *      *  *      *                 *  *  *  *  *  *  *  * 
 B|-----------------------------|    |-------------------------| 
F#|-----------------------------|    |-------------------------| 
 D|-----------------------------| x3 |-------------------------| 
 A|-----------------------------|    |-------------------------| 
 E|-----------------------------|    |-------------------------| 
 A|-0--12--0--0--13--0--12--13--|    |-0--0--------0--0--------| 
    *      *  *      *    
 B|-----------------------------|    |-------------------------| 
F#|-----------------------------|    |-------------------------| 
 D|-----------------------------| x3 |-------------------------| 
 A|-----------------------------|    |-------------------------| 
 E|-----------------------------|    |-------------------------| 
 A|-0--12--0--0--13--0--12--13--|    |-0--0--0--0--0--0--0--0--| 
    *      *  *      *                 *  *  *  *  *  *  *  * 
 B|-----------------------------|    |----------------------------| 
F#|-----------------------------|    |----------------------------| 
 D|-----------------------------| x3 |----------------------------| 
 A|-----------------------------|    |----------------------------| 
 E|-----------------------------|    |----------------------------| 
 A|-0--12--0--0--13--0--12--13--|    |-0--0--0--0--12--0--12--13--| 
    *      *  *      *                 *  *  *  *      * 
		  

Full key step upFull key step up
Half key step upHalf key step up
Half key step downHalf key step down
Full key step downFull key step down
hide glossary

See also:

tabs Deep Purple - Sometimes a Feel Like Screaming tabs Deep Purple - Mistreated tabs Deep Purple - Smoke on the Water (ver. 2) tabs Ira! - Vitrine Viva tabs Doa - Sexyest Girl tabs Deep Purple - Ted The Mechanic
e-chords

Other versions:

tabs Ammonia - Face Down tabs The Red Jumpsuit Apparatus - Face Down tabs Killer Be Killed - Face Down
auto scroll beats size up size down change color hide chords drawings
tab show chords e-chords YouTube Clip e-chords hide all tabs e-chords go to top tab

share with facebook