Kid Abelha

Como Eu Quero

Kid Abelha

tabs Advanced advanced

by  MARCELINHUU

save to print version add songbook text version e-mail correct tuner
chordsukulelecavacokeyboardtabbassdrumsharmonicaflute Guitar Pro
close

there isn't a video lesson for this song

chords

Como Eu Quero

Year: 2002 - Album: Acústico

	  		 solo da introdução do acústico MTV: 
     
      Dm                F                C                 G 
 e|--1-------1|    e|--1-------|    e|--0-------|    e|--3--------| 
 b|----3---3--|6x  b|----1---1-|2x  b|----1---1-|2x  b|----3---3--|2x  
 g|------2----|    g|------2---|    g|------0---|    g|------0----| 
 
     Dm                 F                C                 G 
 e|--1-------|    e|--1-------|    e|--0-------|    e|--3--------|  
 b|----3---3-|2x  b|----1---1-|2x  b|----1---1-|2x  b|----3---3--|2x 
 g|------2---|    g|------2---|    g|------0---|    g|------0----|   
  
 e|-1-------|    e|-1-----3-|     
 b|-3-------|    b|--2-1----| 
 g|-2-------|     
 
  
   
C                       G 
 Diz pra ficar muda faz cara de mistério 
 Am                        F 
 Tira essa bermuda que eu quero você sério 
  C                      G 
 Dramas de sucesso mundo particular 
 Am                    F 
 Solos de guitarra não vão me conquistar 
 
Refrão: 
 C       Em                F 
 Hum! Eu quero você como eu quero (BIS) 
C                             G 
 O que você precisa é de um retoque total 
     Am                            F 
 Vou transformar o seu rascunho em arte final 
  C                 G 
 Agora não tem jeito "se" tá numa cilada 
 Am                     F  
 Cada um por si você por mim e mais nada 
 
(Refrão) 
 C (C Em)      Em                F 
 Hum! Eu quero você como eu quero (BIS)  
 
Dm        F            C                 G 
 Longe do meu domínio "se" vai de mal a pior  
 Dm             F              C4/F 
 Vem que eu te ensino como ser bem melhor  
 
Solo-show:(trechos) 
E|--------------------------------------|-8-5---5-----8-5---5-----------------------------8-5---5- 
B|-------3-5-3--5---3---3---------------|-----8---5-------8---6-5---5---------5-6-5-6-5-8-----8--- 
G|-2-4-5----------5---5---5-2-----------|-----------7-------------7---7-5-7----------------------- 
D|--------------------------------------|-----------------------------------7--------------------- 
A|----------------------------5-3-5-----|--------------------------------------------------------- 
E|----------------------------------5---|--------------------------------------------------------- 
 
Solo-cd: 
E|-------------------------------------------------------8-7-5---5-7-8-10-12--12-12-12-13-10-12-- 
B|-----------3-5--6-3-5-6-3-5-6-5-3---3-5--3-----3-------------8--------------------------------- 
G|-----2-4-5------------------------5--------2-4-----2------------------------------------------- 
D|-3-5---------------------------------------------5--------------------------------------------- 
A|----------------------------------------------------------------------------------------------- 
E|----------------------------------------------------------------------------------------------- 
 
E|------------------------------------|-8-8-8-8-8-8-7-7-7-8-7-5-5-5-7-8-5-- 
B|-13-10-12-10-12-13-10----10---------|------------------------------------ 
G|----------------------12----9-------|------------------------------------ 
D|------------------------------10----|------------------------------------ 
A|---------------------------------12-|------------------------------------ 
E|------------------------------------|------------------------------------ 
 
     

		  

Full key step upFull key step up
Half key step upHalf key step up
Half key step downHalf key step down
Full key step downFull key step down
auto scroll beats size up size down change color hide chords drawings
tab show chords e-chords YouTube Clip e-chords hide all tabs e-chords go to top tab

share